>
 >
Individual Happiness

Individual Happiness Guitar Tabs

Leaf-fat - Individual Happiness chords, tabs, tablatures, lyrics

Guitar lessons | Add/correct | Request | Top 50 tabs Artists:  A B C D E F G H I J K L M N O P Q R S T U V W X Y Z 0-9

Individual Happiness Guitar Tabs – Leaf-fat

CD, Sheet music, Poster

Do you like Individual Happiness? Share with your friends now
Tabs
Intro:
e|-------------------|
B|-------------------|
G|-------------------|
D|-------------------|
A|-4444----444444----|
E|-4444----444444----|
       

e|--------------------------------------------------|
B|--------------------------------------------------|
G|-6--6-6--8-9-6--6-6--8-9-6--13---11-6-6-13---11---|
D|--------------------------------------------------|
A|-4--4-4--6-7-4--4-4--6-7-4--11---9--4-4-11---9----|
E|--------------------------------------------------|


e|---------------------------------------------------------|
B|---------------------------------------------------------|
G|-6--6-6--8-9-6--6-6--8-9-8--8-8--9--11-8888---8888-11\9--|
D|---------------------------------------------------------|
A|-4--4-4--6-7-4--4-4--6-7-6--6-6--7--9--6666---6666--9\7--|
E|---------------------------------------------------------|


White shadows...
e|-----------------------------------------------------------|
B|-----------------------------------------------------------|
G|-6--6-6--8-9-6--6-6--8-9-6--6-6--13---11-6--6-6--8-9-9-9-9-|
D|-----------------------------------------------------------|
A|-4--4-4--6-7-4--4-4--6-7-4--4-4--11---9--4--4-4--6-7-7-7-7-|
E|-----------------------------------------------------------|

Don`t know what...
e|--------------------------------------|
B|--------------------------------------|
G|-6--6-6--8-9-6--6-6--8-9-7-----9---8--|
D|-------------------------7------------|
A|-4--4-4--6-7-4--4-4--6-7-5-----7---6--|
E|--------------------------------------|

e|---------------------------------------------------------------------------------|
B|---------5---4---4h5---------5---4---4h5---------5---4---4h5---------5---4---4h5-|
G|---------------------------------------------4-------------------4---------------|
D|-----6-------------------6-------------------------------------------------------|
A|-4444------4---4-----4444------4---4-----0000------0---0-----0000------0---0-----|
E|---------------------------------------------------------------------------------|
                                                      

e|------------------------------------------------------------------------|
B|---------5---4---4h5---------5---4---4h5---------5---4---4h5------------|
G|---------------------------------------------4---------------------4----|
D|-----6-------------------6-----------------------------------------4----|
A|-4444------4---4-----4444------4---4-----0000------0---0-----0-----2----|
E|------------------------------------------------------------------------|
                                        


Take me, fake me...
e|--------------------------------------------------------------------------------------------|
B|--------------------------------------------------------------------------------------------|
G|-9--9-9-9--9-9-9--9--9-9-9--9-9-9--11/13--13-13-13--13-13-13-11/13--13-13-13--13-13-13-11---|
D|--------------------------------------------------------------------------------------------|
A|-7--7-7-7--7-7-7--7--7-7-7--7-7-7---9/11--11-11-11--11-11-11--9/11--11-11-11--11-11-11-9----|
E|------------------7--7-7-7--7-7-7-----------------------------------------------------------|

Now even you...
e|-----------------------------------------------------------|
B|-----------------------------------------------------------|
G|-9--9-9-9--9-9-9--9--9-9-9--9-9-9--11--11--9---11-9-11-----|
D|-----------------------------------------------------------|
A|-7--7-7-7--7-7-7--7--7-7-7--7-7-7---9--9---7----9-7-9------|
E|------------------7--7-7-7--7-7-7--------------------------|

e|------------------------------------------------------------------------------------|
B|------------------------------------------------------------------------------------|
G|-------------13-13-13-13-------------------------------------13-13-13-13-14M--13\\\-|
D|-11-11-11-11-------------14-14-14-13-13-13-13h14-11-11-11-11------------------------|
A|------------------------------------------------------------------------------------|
E|------------------------------------------------------------------------------------|

...clouds prefer...
e|-------------------------|
B|-------------------------|
G|-------------6--6--6--6--|
D|-2--2--2--2--6--6--6--6--|
A|-2--2--2--2--4--4--4--4--|
E|-0--0--0--0--------------|

...clouds prefer...
e|-----------------------------------------------------------------------------------------------|
B|-----------------------------------------------------------------------------------------------|
G|-------------------------------------6~~~~~~~~~~~~~~~~~~~~~~-----------------------------------|
D|-2--------2--------2--------2--------6~~~~~~~~~~~~~~~~~~~~~~-----------------------------------|
A|-2--2--2--2--2--2--2--2--2--2--2--2--4h6p4h6p4h6p4h6p4h6p4h6-7-6-4-6/9-----7--9--11----9---9---|
E|-0--0--0--0--0--0--0--0--0--0--0--0------------------------------------------------------------|
                     


Now you are hiding...
e|-----------------------------------------------------|
B|-----------------------------------------------------|
G|-6--6--66-----6--6--66-----6--6--66-----6--6--66-----|
D|-6--6--66-----6--6--66-----6--6--66-----6--6--66-----|
A|-4--4--44-----4--4--44-----4--4--44-----4--4--44-----|
E|---------------------------5--5--55-----5--5--55-----|
    M  M   M     M  M   M     M  M   M     M  M   M

e|---------------------------------------------------|
B|---------------------------------------------------|
G|-6--6-6-6-6-6-6-6-6-7-7-7-7-7-7-7-7-9-9-9-9-9-9-8--|
D|----4-4-4-4-4-4-4-4--------------------------------|
A|-4--4-4-4-4-4-4-4-4-5-5-5-5-5-5-5-5-7-7-7-7-7-7-6--|
E|--------------------5-5-5-5-5-5-5-5-7-7-7-7-7-7----|


Clouds are divine gravitation...
e|-----------------------------------------------------------|
B|-----------------------------------------------------------|
G|-6--6-6--8-9-6--6-6--8-9-6--6-6--13---11-6--6-6--8-9-9-9-9-|
D|-----------------------------------------------------------|
A|-4--4-4--6-7-4--4-4--6-7-4--4-4--11---9--4--4-4--6-7-7-7-7-|
E|-----------------------------------------------------------|

Silence is just another noise...
e|--------------------------------------|
B|--------------------------------------|
G|-6--6-6--8-9-6--6-6--8-9-7-----9---8--|
D|-------------------------7------------|
A|-4--4-4--6-7-4--4-4--6-7-5-----7---6--|
E|--------------------------------------|


e|-------------------------------------------------|
B|-------------------------------------------------|
G|-------------13-13-13-13-------------------------|  -- 3x
D|-11-11-11-11-------------14-14-14-13-13-13-13h14-|
A|-------------------------------------------------|
E|-------------------------------------------------|
   

e|-------------------------------------------------|
B|-------------------------------------------------|
G|-------------13-13-13-13-14-14-14-13-13-13-11-11-|
D|-11-11-11-11-------------------------------------|
A|-------------------------------------------------|
E|-------------------------------------------------|
   

e|-------------------------------------------------|
B|-------------------------------------------------|
G|-------------13-13-13-13-------------------------|  -- 3x
D|-11-11-11-11-------------14-14-14-13-13-13-13h14-|
A|-------------------------------------------------|
E|-------------------------------------------------|

e|-------------------------------------------------|
B|-------------------------------------------------|
G|-------------13-13-13-13-14-14-14-13-13-13-11-11-|
D|-11-11-11-11-------------------------------------|
A|-------------------------------------------------|
E|-------------------------------------------------|


Take me, fake me...
e|--------------------------------------------------------------------------------------------|
B|--------------------------------------------------------------------------------------------|
G|-9--9-9-9--9-9-9--9--9-9-9--9-9-9--11/13--13-13-13--13-13-13-11/13--13-13-13--13-13-13-11---|  \
D|--------------------------------------------------------------------------------------------|   \
A|-7--7-7-7--7-7-7--7--7-7-7--7-7-7---9/11--11-11-11--11-11-11--9/11--11-11-11--11-11-11-9----|    \
E|------------------7--7-7-7--7-7-7-----------------------------------------------------------|     \
                                                                                                     \
Now even you...                                                                                      |_ 2x
e|-----------------------------------------------------------|                                       |
B|-----------------------------------------------------------|                                      /
G|-9--9-9-9--9-9-9--9--9-9-9--9-9-9--11--11--9---11-9-11-----|                                     /
D|-----------------------------------------------------------|                                    /
A|-7--7-7-7--7-7-7--7--7-7-7--7-7-7---9--9---7----9-7-9------|
E|------------------7--7-7-7--7-7-7--------------------------|


e|-------------------------------------|
B|-------------------------------------|
G|-6~~~~~~~~--6-6-M--6~~~~~~~~---------|
D|-6~~~~~~~~6-6-6-M--6~~~~~~~~66666666-|
A|-4~~~~~~~~4-4-4-M--4~~~~~~~~44444444-|
E|-------------------------------------|
                             

e|-----------------------------------------------------|
B|-----------------------------------------------------|
G|-6-----6---------------------------------------------|  -- 2x
D|-6-66666-66664------------7--7--6p4h6p4h6p4-2--2-M---|
A|-4-44444-44444-4444444444-7--7--------------2--2-M---|
E|-------------2-2222222222-5--5--------------0--0-M---|
         

e|-------------------------------------------------|
B|-------------------------------------------------|
G|-------------------------------------------4-4-4-|  -- 2x
D|-666666666666------4-4-4-------------4444444-4-4-|
A|-4444444444444444444-4-4-7777777777772222222-2-2-|
E|-------------2222222-2-2-555555555555------------|


e|-------------------------------------------------|
B|-------------------------------------------------|
G|-6-6-6-6-6-6-8-8-8-8-8-8-9-9-9-9-9-9-111111111111|  -- 2x
D|-------------------------------------------------|
A|-4-4-4-4-4-4-6-6-6-6-6-6-7-7-7-7-7-7-9-9-9-9-9-9-|
E|-------------------------------------------------|





Comments


Popular Leaf-fat tabs & chords
Winter Song Chords
Amnesia Tabs
Today Tabs
Twt Intro Tabs
Winter Song Ukulele


Song lyrics



↑ Back to top | Tablatures and chords are parodies/interpretations of the original songs. You may use it for private study, scholarship, research or language learning purposes only
© 2014 AZChords.com Contact us | Privacy policy | DMCA | Add/correct tabs | Request tabs | Top 50 tabs