>
 >
Good Morning Blues

Good Morning Blues Bass Tabs

Leadbelly - Good Morning Blues chords, tabs, tablatures, lyrics

Guitar lessons | Add/correct | Request | Top 50 tabs Artists:  A B C D E F G H I J K L M N O P Q R S T U V W X Y Z 0-9

Good Morning Blues Bass Tabs – Leadbelly

CD, Sheet music, Poster

Do you like Good Morning Blues? Share with your friends now
Bass TabsTabs
----------------------------------------------------------------------------
			     Good Morning Blues – Lead Belly
----------------------------------------------------------------------------


This song probably does have someone playing bass in the background but since the 
recording equipment was so poor in the 30’s and 40’s, it’s too hard to tell.
But anyway, here it is:


Tuning: EADG

Good Morning Blues…

G|---------4--7--4-----------------4--7--4--------|
D|---4--7-----------7--4-----4--7-----------7--4--|
A|5-----------------------5-----------------------|
E|------------------------------------------------|

G|---------------------------------4--7--4------|
D|------0--2--3--2--0--------4--7-----------7--4|
A|---2-----------------2--5---------------------|
E|3---------------------------------------------|

G|---------------------------------4--7--4------|
D|---------4--------0--2-----4--7-----------7--4|
A|---4--7--------2--------5---------------------|
E|5-----------3---------------------------------|

(Ending note is on a D)

Lyrics:

Well, good morning blues, blues how do you do
Well, good morning blues, blues how do you do
I'm doing all right well, good morning how are you.

I couldn't sleep last night, I was turning from side to side
Oh Lord, I was turning from side to side
I wasn't sad, I was just dissatisfied.

I couldn't sleep last night, you know the blues walking ‘round my bed,
Oh Lord, the blues walking 'round my bed
I went to eat my breakfast, the blues was in my bread.

Well good morning blues, blues how do you do.
Well, good morning blues, blues how do you do.
I'm doing all right, well, good morning how are you.





Comments


Popular Leadbelly tabs & chords
Cotton Fields Chords
Where Did You Sleep Last Night Chords
Alabama Bound 1 Tabs
Good Morning Blues Tabs
Goodnight Irene Tabs
Grey Goose Tabs
Gee But I Want To Go Home Army Life Ukulele
On A Monday Ukulele
Pick A Bale Of Cotton Ukulele
Rock Island Line Ukulele


Song lyrics



↑ Back to top | Tablatures and chords are parodies/interpretations of the original songs. You may use it for private study, scholarship, research or language learning purposes only
© 2014 AZChords.com Contact us | Privacy policy | DMCA | Add/correct tabs | Request tabs | Top 50 tabs