>
 >
Alabama Bound

Alabama Bound Guitar Tabs

Leadbelly - Alabama Bound chords, tabs, tablatures, lyrics

Guitar lessons | Add/correct | Request | Top 50 tabs Artists:  A B C D E F G H I J K L M N O P Q R S T U V W X Y Z 0-9

Alabama Bound Guitar Tabs – Leadbelly

CD, Sheet music, Poster

Do you like Alabama Bound? Share with your friends now
TabsTabs v2
-------------------------------------------------------------------------------
-------------------------------------------------------------------------------



Tuning: Standard

The first part of the original tab was accurate, but I think the rest needed revision:


     I'm   Al- a- ba- ma- bound         (I'm   Al- a- ba- ma- bound)

e|---------------------------------------------------------------------------|
B|---------------------------------------------------------------------------|
G|---------------------------------------------------------------------------|
D|---------------------------------------------------------------------------|
A|--------------2----4----2-----------------------2----4----2----------------|
E|----0----4-------------------0---------0----4-------------------0----------|

     I'm   Al- a- ba- ma- bound         (I'm   Al- a- ba- ma- bound)

e|---------------------------------------------------------------------------|
B|---------------------------------------------------------------------------|
G|---------------------------------------------------------------------------|
D|--------------2----4----2------------------------2----4----2---------------|
A|----0----4-------------------0---------0----4-------------------0----------|
E|---------------------------------------------------------------------------|

     And  if  this   traaaain don't stop and turn around     I'm   Al-  a-

e|---------------------------------------------------------------------------|
B|---------------------------------------------------------------------------|
G|---------------------------------------------------------------------------|
D|---------------------------------------------------------------------------|
A|----2----4----5----7----------5---4---2---5---4---2--------------------2---|
E|-------------------------------------------------------------0----4--------|

    -ba ma- bound       (I'm   Al- a- ba- ma- bound)

e|---------------------------------------------------------------------------|
B|---------------------------------------------------------------------------|
G|---------------------------------------------------------------------------|
D|---------------------------------------------------------------------------|
A|-4----2--------------------------2----4----2-------------------------------|
E|-----------0----------0----4----------------------0------------------------|


Lyrics:

I'm Alabama bound (I'm Albama bound)
I'm Alabama bound (I'm Albama bound)
And if the train don't stop and turn around
I'm Alabama bound (I'm Albama bound)

Don't ya leave me here (Now don't ya leave me here)
Don't ya leave me here (Now don't ya leave me here)
And if you will go anyhow
Give me a dime for bail (Give me a dime for bail)

I'm Alabama bound (I'm Albama bound)
I'm Alabama bound (I'm Albama bound)
And if the train don't stop and turn around
I'm Alabama bound (I'm Albama bound)

You ought-a be like me (You ought-a be like me)
You ought-a be like me (You ought-a be like me)
----incomprehensible----
and let that King gone be

I'm Alabama bound (I'm Albama bound)
I'm Alabama bound (I'm Albama bound)
And if the train don't stop and turn around
I'm Alabama bound (I'm Albama bound)

The preachers in the stand (The preachers in the stand)
Pass his hand around (Pass his hand around)
Singing brothers and sisters shoot your money to me
I'm Alabama bound (I'm Albama bound)

I'm Alabama bound (I'm Albama bound)
I'm Alabama bound (I'm Albama bound)
And if the train don't stop and turn around
I'm Alabama bound (I'm Albama bound)

Oh that preacher preach (Oh that preacher preach)
Ssisters they turned around (Sisters they turned around)
Yes n' the deacons' in the corner holler sweet gal
I'm Alabama bound (I'm Albama bound)

I'm Alabama bound (I'm Albama bound)
I'm Alabama bound (I'm Albama bound)
And if the train don't stop and turn around
I'm Alabama bound (I'm Albama bound)





Comments


Popular Leadbelly tabs & chords
Goodnight Irene Chords
Goonight Irene Chords
Midnight Special 1 Chords
Rock Island Line Chords
Alabama Bound 1 Tabs
Goodnight Irene Tabs
Where Did You Sleep Last Night Tabs
Goodnight Irene Ukulele
Pick A Bale Of Cotton Ukulele
Rock Island Line Ukulele


Song lyrics



↑ Back to top | Tablatures and chords are parodies/interpretations of the original songs. You may use it for private study, scholarship, research or language learning purposes only
© 2014 AZChords.com Contact us | Privacy policy | DMCA | Add/correct tabs | Request tabs | Top 50 tabs