» » »

Lcd Soundsystem, North American Scum Bass tabs (ver.2)

Artists:  A B C D E F G H I J K L M N O P Q R S T U V W X Y Z # 

North American Scum Bass tabs (ver.2)

Lcd Soundsystem Tabs
 Rating:
4/5 (4 votes)
North American Scum lessons Tabs too difficult? Try these video lessons and learn fast
                North American Scum-LCD Soundsystem


This is a really great song taken Off the Sound Of Silver album. You need a lot of 
since the song requires constant picking. Start off slowly.
The first bass line has some sort of phaser effect with makes it really low but it'll 
just fine jamming along to mates normally.
I'm not excactly sure where the second bassline comes in but if you listen to the song 
sure you'll find it. I tabbed this on a live version so I'm not completely sure.


First verse
E-0-0-0-0-0-0-0-0--|
A------------------| X3
D------------------|
G------------------|

Then...

E-3-3-3-3-5-5-5-5-|
A-----------------|
D-----------------|
G-----------------|
This repeats into the first chorus.

There is also a second bass part brought in in the last few bars of the first verse.

E-----------------|
A-----------------|
D-7-7-7-7-7-7-7-7-|
G-x-x-x-x-x-x-x-x-|
You hold the 7th fret lightly.

Chorus

E-0-0-0-0-0-0-0-0--|
A------------------| X3
D------------------|
G------------------|

Then

E-3-3-3-3-5-5-5-5-|
A-----------------|
D-----------------|
G-----------------|

Second Verse

E-x-x-x-x-x-x-x-x--|
A-x-x-x-x-x-x-x-x--| X3
D------------------|
G------------------|

Then...

E-3-3-3-3-5-5-5-5-|
A-x-x-x-x-x-x-x-x-|
D-----------------|
G-----------------|
Hold the third and fifth frets lightly.

This Repeats until the Chorus

Once again there is a second bassline in the last few bars of the secong verse.

E-x-x-x-x-x-x-x-x-|
A-2-2-2-2-2-2-2-2-|
D-----------------|
G-----------------|

Second Chorus

E-0-0-0-0-0-0-0-0--|
A------------------| X3
D------------------|
G------------------|

Then...

E-3-3-3-3-5-5-5-5-|
A-----------------|
D-----------------|
G-----------------|

Repeat until the song ends.

Please leave comments or corrections if there are any.!
            
Submit corrections

comments powered by Disqus
↑ Back to top | Lcd Soundsystem Bass for North American Scum. Lyrics for acoustic guitar and electric guitar. Tablatures and chords are parodies/interpretations of the original songs. You may use it for private study, scholarship, research or language learning purposes only