» » »

Lcd Soundsystem, New York I Love You But Youre Bringing Me Down Bass tabs (ver.1)

Artists:  A B C D E F G H I J K L M N O P Q R S T U V W X Y Z # 

New York I Love You But Youre Bringing Me Down Bass tabs (ver.1)

Lcd Soundsystem Tabs
 Rating:
4/5 (4 votes)
New York I Love You But Youre Bringing Me Down lessons Tabs too difficult? Try these video lessons and learn fast
                Basic 3 notes. (No extra)

G|----------------------------------|
D|----------------------------------|
A|----------------5~~~~~~~~4~~~~~~~~|
E|1~~~~~~~~~~~~~~~------------------|

Some variants I use. 
G|-------------7/9-7---------|
D|---3---33---------7--6/8-6-|
A|---------3-5~------4~-----6|
E|1~---1~--------------------|

G|---------------------7~~~--------|
D|---------------------------------|
A|----------------5~~~~~~~54~~~~664|
E|1~~~~~~~~~~~~~~~-----------------|

G|--------------777------|
D|--333---33----------66-|
A|----------3-5~~~~~4~~~4|
E|1~~~~~1~~~~~~~~~-------|
            
Submit corrections

comments powered by Disqus
↑ Back to top | Lcd Soundsystem Bass for New York I Love You But Youre Bringing Me Down. Lyrics for acoustic guitar and electric guitar. Tablatures and chords are parodies/interpretations of the original songs. You may use it for private study, scholarship, research or language learning purposes only