>
 >
All My Friends 1

All My Friends 1 Guitar Tabs

Lcd Soundsystem - All My Friends 1 chords, tabs, tablatures, lyrics

Guitar lessons | Add/correct | Request | Top 50 tabs Artists:  A B C D E F G H I J K L M N O P Q R S T U V W X Y Z 0-9

All My Friends 1 Guitar Tabs – Lcd Soundsystem

CD, Sheet music, Poster

Do you like All My Friends 1? Share with your friends now
Bass TabsBass Tabs v2ChordsTabsTabs v2Ukulele
LCD Soundsystem - All My Friends

Bass:

G|--------------------------------------------------------------|
D|-------7-------7-------7------7-------7-------7-------7-------|
A|---5------55------55-----55-----55-----55------55-------------|
E|--------------------------------------------------------------|

G|-----------------------------------------------------------------|
D|-------7-7-7-7-7-7-7-7-----------------------------------    x24-|
A|-----------------------------------------------------------------|
E|-----------------------------------------------------------------|


Guitar 1:

0:00 -0:47

A

0:47 - End: Change pattern to A and D when Bass comes in.

A x 24 D x24

5:10 pattern changes to strum with fills for solo. Not necessary

Guitar 2:

1:07  - 2:15 Come in After 1 bass turn around. Play Pattern opposite of bass.

     D5
e|------|
B|------|
G|------|
D|---7--|
A|---5--|  x24
E|------|

e|----------------------------|
B|----------------------------|
G|----------------------------|
D|-----------7---------7------|  x4
A|----------------------------|
E|---5---5-------5-5----------|


2:15 - 3:21

"That's how it starts..."

Again, opposite bass.

e|----------|
B|----------|
G|----------|
D|------7---|   x6 Strum tight with emphasis on the down
A|------x---|
E|------5---|

     D5
e|------|
B|------|
G|------|
D|---7--|
A|---5--|  x24
E|------|

3:21 - 3:48

"You spend the 1st 5 years..."

Synth effect. Gotta mess with the tones. Chorus pedal maybe. I read the strokes used a 
Jekyll and Hyde pedal for the song 12:51 could be a cool sound

e|------7h9--7h9--7h9--9*--/12-\5-|
B|--------------------------------|
G|--------------------------------|
D|--------------------------------|
A|--------------------------------|
E|--------------------------------|


3:48 - 4:42

"It comes apart..."

     D5
e|------|
B|------|
G|------|
D|---7--|
A|---5--|  x24
E|------|

e|----------------------------|
B|----------------------------|
G|----------------------------|
D|-----------7---------7------|  x4
A|----------------------------|
E|---5---5-------5-5----------|

4:42 - 5:10

"Oh you drop the first 10 years just as fast as you can..."

Synth effect

e|------7h9--7h9--7h9--9*--/12-\5-|
B|--------------------------------|
G|--------------------------------|
D|--------------------------------|
A|--------------------------------|
E|--------------------------------|


5:10 - 5:35

"Where are your friends tonight." ends verse

Synth effect

e|------17*-17-16-12*--------------|
B|---------------------------------|
G|---------------------------------| x4
D|---------------------------------|
A|---------------------------------|
E|---------------------------------|


"To tell the truth, this could be the last time..."

5:35 - End move between lead patterns to the beat. Hang notes for
       first part of each beat.

e|------5*------------------------|
B|--------------------------------|
G|--------------------------------|
D|--------------------------------|
A|--------------------------------|
E|--------------------------------|



That's how it starts
We go back to your house
We check the charts
And start to figure it out
And if it's crowded, all the better
Because we know we're gonna be up late
But if you're worried about the weather
Then you picked the wrong place to stay
That's how it starts

And so it starts
You switch the engine on
We set controls for the heart of the sun
One of the ways we show our age
And if the sun comes up, if the sun comes up, if the sun comes up
And I still don't wanna stagger home
Then it's the memory of our betters
That are keeping us on our feet

You spent the first five years trying to get with the plan
And the next five years trying to be with your friends again
You're talking 45 turns just as fast as you can
Yeah, I know it gets tired, but it's better when we pretend

It comes apart
The way it does in bad films
Except in parts
When the moral kicks in
Though when we're running out of the drugs
And the conversation's winding away
I wouldn't trade one stupid decision
For another five years of life

You drop the first ten years just as fast as you can
And the next ten people who are trying to be polite
When you're blowing eighty-five days in the middle of France
Yeah, I know it gets tired only where are your friends tonight

And to tell the truth
Oh, this could be the last time
So here we go
Like a sales force into the night
And if I made a fool, if I made a fool, if I made a fool
on the road, there's always this
And if I'm sewn into submission
I can still come home to this

And with a face like a dad and a laughable stand
You can sleep on the plane or review what you said
When you're drunk and the kids leave impossible tasks
You think over and over, "hey, I'm finally dead."
Oh, if the trip and the plan come apart in your hand
Tou look contorted on yourself your ridiculous prop
You forgot what you meant when you read what you said
And you always knew you were tired, but then
Where are your friends tonight

Where are your friends tonight
Where are your friends tonight

If I could see all my friends tonight





Comments


Popular Lcd Soundsystem tabs & chords
New York, I Love You But You're Bringing Me Down Bass Tabs
North American Scum 1 Bass Tabs
Someone Great Bass Tabs
New York, I Love You But You're Bringing Me Down Chords
Tribulations Chords
All I Want Tabs
All My Friends Tabs
You Wanted A Hit Tabs
North American Scum Ukulele
Tribulations Ukulele


Song lyrics



↑ Back to top | Tablatures and chords are parodies/interpretations of the original songs. You may use it for private study, scholarship, research or language learning purposes only
© 2014 AZChords.com Contact us | Privacy policy | DMCA | Add/correct tabs | Request tabs | Top 50 tabs