» » »

Lcd Soundsystem, All My Friends Tabs (ver.1)

Artists:  A B C D E F G H I J K L M N O P Q R S T U V W X Y Z # 

All My Friends Tabs (ver.1)

Lcd Soundsystem Tabs
 Rating:
4/5 (4 votes)
All My Friends lessons Tabs too difficult? Try these video lessons and learn fast
                hey all, the tabs available for this song are god awful so i effed around a bit and came
up with a pretty accurate interpretation for solo guitar

FIRST AND FOREMOST THIS SONG IS PLAYED IN DROP D!!!

intro/fig.1

||----------------------------------||
||----------------------------------||   PLAY THIS FIGURE AS MANY TIMES AS NEEDED
||----------------------------------||
||--7---7---7-7-7--7---7---7-7-7----||
||-0-0-0-0-0-0-0--0-0-0-0-0-0-0-0---||
||7---7---7------0---0---0----------||

the above figure eventually turns into this:

melody/fig.2

||--------------------------------------||
||--------------------------------------||
||----------------6------------- --6----||  AGAIN THIS IS REPEATED MANY TIMES
||--7---7----7-9--9---7-- 7----7-9 -9---||
||-0-0-0-0-0- 0-0----0-0-0-0-0-0--------||
||7---7---7---------0---0---0-----0-- --||

_________________________________________________________
bridge/fig.3

this part is for the verses "and when we're running out of the drugs and the
conversations grinding away" as well as "i wouldn't trade one stupid decision for
another five
years of life."

THESE ARE THE CHORDS MINUS THE RYTHEM, THE RYTHEM IS EASY ENOUGH TO FIGURE OUT


||--------------------||
||--------------------||
||6-6-6-9-6-4-6-4-----||
||7-7-7-7-7-7-7-7-7---||
||0-0-0-0-0-0-0-0-0---||
||---------------- 0--||

than back to fig.2
______________________________________________________

end(musical break)/fig.4

this is the part were they all go "doo doo doo doo doo dodo do"

THIS IS REPEATED

||------------------------------------------------------------|
||------------------------------------------------------------|
||------------------------------------------------------------|
||------------------------------------------------------------|
||0-0-0-0-2-2-2-2-4-4-4-5-4-4-2-2-0-0-0-0-2-2-2-2-4-4-4-5-7-0-|
||7-7-7-7-7-7-7-7-7-7-7-7-7-7-7-7-7-7-7-7-7-7-7-7-7-7-7-7-7-7-|

------------------------------------------------------------||
------------------------------------------------------------||
------------------------------------------------------------||
------------------------------------------------------------||
0-0-0-0-2-2-2-2-4-4-4-5-4-2-0-0-0-0-0-0-0-0-0-0-0-0-0-0-0-0-||
0-0-0-0-0-0-0-0-0-0-0-0-0-0-0-0-0-0-0-0-0-0-0-0-0-0-0-0-0-0-||
            
Submit corrections

comments powered by Disqus
↑ Back to top | Lcd Soundsystem Tabs for All My Friends. Lyrics for acoustic guitar and electric guitar. Tablatures and chords are parodies/interpretations of the original songs. You may use it for private study, scholarship, research or language learning purposes only