» » »

Lcd Soundsystem, All I Want Tabs (ver.1)

Artists:  A B C D E F G H I J K L M N O P Q R S T U V W X Y Z # 

All I Want Tabs (ver.1)

Lcd Soundsystem Tabs
Rating:
0/5 (0 votes)
All I Want lessons Tabs too difficult? Try these video lessons and learn fast
                LCD Soundsystem's 'All I Want' from the 2010's This Is Happening.

Fairly easy. Four Basic Parts. Listen to song for timing.

\ = Slide Down
/ = Slide Up
^ = Bend
~ = Let Note Ring

1.
e------------------------------------------------------------|
B------------------------------------------------------------|
G------------------------------------------------------------|
D------------------------------------------------------------|
A-----------------/2------14~~~~^16--------14~~~~------------|
D----\15-----------------------------------------------------|

2.
e------------------------------------------------------------|
B------------------------------------------------------------|
G------------------------------------------------------------|
D------------------------------------------------------------|
A-----------------/2------14~~~~^16--------14-14~~~~---------|
D----\15-----------------------------------------------------|

3.
e------------------------------------------------------------|
B------------------------------------------------------------|
G------------------------------------------------------------|
D-------------------16-14------------------------------------|
A----^16------14-14------------^16--^16--14-14~~~~-----------|
D------------------------------------------------------------|

4.
e----------------------------|
B----------------------------|
G----------------------------|
D----------------------------|
A----^16------14~~~~~--------|
D----------------------------|

Verses go 1,2,1,2,3

Part 4 shows up in throughout the songs in the choruses and at the end.
            

comments powered by Disqus
↑ Back to top | Lcd Soundsystem Tabs for All I Want. Lyrics for acoustic guitar and electric guitar. Tablatures and chords are parodies/interpretations of the original songs. You may use it for private study, scholarship, research or language learning purposes only