>
 >
Last Breath

Last Breath Guitar Tabs

Lazarus Ad - Last Breath chords, tabs, tablatures, lyrics

Guitar lessons | Add/correct | Request | Top 50 tabs Artists:  A B C D E F G H I J K L M N O P Q R S T U V W X Y Z 0-9

Last Breath Guitar Tabs – Lazarus Ad

CD, Sheet music, Poster

Do you like Last Breath? Share with your friends now
Tabs

Last Breath Tab
Lazarus A.D.
Drop D

Gtr. I
----------------------------------|
----------------------------------|
----------------------------------|
-7---8---7---8---7---8---7-8-7-5--| x2
-5---6---5---6---5---6---5-6-5-3--|
----------------------------------|

Gtr. II (power chord first time, chord second time)
------------------------------------|
----------------3-------------------|
----------------2-------------------|
----------------0-------------------|
-0--------------0-------------------|
-0--------------0-------------------|

I'm a little unsure about the run at the end but it's something close to this

Main Riff
|------------------------------------------------------------------|
|------------------------------------------------------------------|
|------------------------------------------------------------------|
|------------------------------------------------------------------|
|-5---6---5---6---5---6---5-6-5-3-5---6---5---6---3-1-0---------3--|
|---0---0---0---0---0---0-----------0---0---0---0-------3-2-0-2----|
    .   .   .   .   .   .           .   .   .   .

|-----------------------------------------------------------------------|
|-----------------------------------------------------------------------|
|-----------------------------------------------------------------------|
|-------------------------------------------------------------7h8p7h8p--|
|-5---6---5---6---5---6---5-6-5-3-5---6---5---6---5---6---5-6-----------|
|---0---0---0---0---0---0-----------0---0---0---0---0---0---------------|
    .   .   .   .   .   .           .   .   .   .   .   .

Heavy breakdown part
|--------------------------------------------|
|--------------------------------------------|
|--------------------------------------------|
|--------------------------------------------|
|-0-0-0-0-0-0-0-0-0-0-0-0-0-0-0-0-0-0-0-0-0--|
|-0-0-0-0-0-0-0-0-0-0-0-0-0-0-0-0-0-0-0-0-0--|
  . . . . . . . . . . . . . . . . . . . . .

Chorus
|-------------------------------|
|-3-----------------------------|
|-2-----------------------------|
|-0------------5----3--2--------| x4
|-0------------3----1--0--3-----|
|-0--------0-0------------3--0--|
           . .               .

Gtr. II does this last 2 times

|------------------------------------------|
|-3----------------------------------------|
|-2----------------------------------------|
|-0---------7-------7-------5----3-2-------|
|-0-------------------------3----1-0--3----|
|-0---0-0-0---0-0-0---0-0-0-----------3-0--|
      . . .   . . .   . . .             .

Backing behind solo
|----------------------------------------------|
|----------------------------------------------|
|----------------------------------------------|
|-7-----7-----8-8-8-----3-----3-----2-2-2------|
|-5-----5-----5-5-5-----1-----1-----3-3-3------|
|---0-0---0-0-------0-0---0-0---0-0-------0-0--|
    . .   . .       . .   . .   . .       . .

Pre-Verse

|----------------------------------|
|----------------------------------|
|----------------------------------|
|-7---8---7---8---7---8---7-8-7-5--|
|-5---6---5---6---5---6---5-6-5-3--|
|----------------------------------|


Verse

|----------------------------------|
|----------------------------------|
|----------------------------------|
|----------------------------------|
|-0---------6-5-0---------6-5-2-3--|
|-0--0-000--6-5-0---000-0-6-5-2-3--|
     . ...          ... .

Pre-Chorus
"Heat arises from the flames of hell..."

|----------------------------------------------------------------------|
|----------------------------------------------------------------------|
|----------------------------------------------------------------------|
|----------------------------------------------------------------------|
|-----1-0-----1-0-----1-0-----1-0-----1-0-----1-0-----3-1-0---------3--|
|-0-0-1-0-0-0-1-0-0-0-1-0-0-0-1-0-0-0-1-0-0-0-1-0-0-0-------3-2-0-2----|
  . .     . .     . .     . .     . .     . .     . .

Play it again without the palm muting

|------------------------------------------------------------------|
|------------------------------------------------------------------|
|------------------------------------------------------------------|
|------------------------------------------------------------------|
|-----1-0-----6-0-----1-0-----6-0-----1-0-----6-0-----1-0-----6-0--|
|-0-0-1-0-0-0-6-0-0-0-1-0-0-0-6-0-0-0-1-0-0-0-6-0-0-0-1-0-0-0-6-0--|
  . .     . .     . .     . .     . .     . .     . .     . .


Ending part after the solo

|---------------------------------------------------------------------|
|---------------------------------------------------------------------|
|---------------------------------------------------------------------|
|---------6---------------6--------------6----------------------------|
|-----5-8---5---------5-8---5-4------5-8---5--------------------------|
|-0-0---------0-0-0-0------------0-0---------0-0-0-0-0-0-0000000-0-0--|
  . .         . . . .            . .         . . . . . . ....... . .


|------------------------------------------------------------------|
|------------------------------------------------------------------|
|------------------------------------------------------------------|
|-----------------------------6------------------------------------|
|-5---8---5---8---5---8---5-8---8-5---8---5---8---3-1-0---------3--|
|---0---0---0---0---0---0-----------0---0---0---0-------3-2-0-2----|
    .   .   .   .   .   .           .   .   .   .

Harmony behind ending riff

|-------------------------------------------------------------------------|
|-------------------------------------------------------------------------|
|-------------------------------------------------------------------------|
|---------------------------------10--------------------------------------|
|-8---12---8---12---8---12---8-12----12-8---12---8---12--3-1-0---------3--|
|---0----0---0----0---0----0--------------0----0---0-----------3-2-0-2----|
    .    .   .    .   .    .              .    .   .

Play the little run 3 times

|-------------------------|
|--------3----------------|
|--------2----------------|
|--------0----------------|
|-0--0---0----------------|
|-0--0---0----------------|
  .  .





Comments


Popular Lazarus Ad tabs & chords
Absolute Power Tabs
Black Rivers Flow Intro Tabs
Forged In Blood Tabs
Thou Shall Not Fear Tabs
Thou Shall Not Fear Intro Tabs
Thou Shall Not Fear Intro 1 Tabs
Thou Shall Not Fear Intro 2 Tabs


Song lyrics



↑ Back to top | Tablatures and chords are parodies/interpretations of the original songs. You may use it for private study, scholarship, research or language learning purposes only
© 2014 AZChords.com Contact us | Privacy policy | DMCA | Add/correct tabs | Request tabs | Top 50 tabs