>
 >
Forged In Blood

Forged In Blood Guitar Tabs

Lazarus Ad - Forged In Blood chords, tabs, tablatures, lyrics

Guitar lessons | Add/correct | Request | Top 50 tabs Artists:  A B C D E F G H I J K L M N O P Q R S T U V W X Y Z 0-9

Forged In Blood Guitar Tabs – Lazarus Ad

CD, Sheet music, Poster

Do you like Forged In Blood? Share with your friends now
Tabs
Long Live Thrash

Intro:
E|--------------------------------------------------------------|
B|--------------------------------------------------------------|
G|--------------------------------------------------------------|  2x
D|-8/7-------8/7----------------8/7-------8/7-------------------|
A|-6/5--6/5--6/5--6/5-----------6/5--6/5--6/5--6/5--------------|
D|----0-6/5-0---0-6/5-0-0-1-4-3----0-6/5-0---0-6/5-0-000-000----|
      PM    PM  PM    PM                           |---PM---|

E|----------------------------------|
B|----------------------------------|
G|----------------------------------|
D|----------------------------------|
A|----------------------------------|
D|-11111111111111114444444433333333-|
repeat whole thing twice

Verse:
E|---------------------------------------------|
B|---------------------------------------------|
G|---------------------------------------------|  4x
D|---------------------------------------------|
A|-------0--------0--------0-------------------|
D|-0000000--0000000--0000000--000-000-000-000--|

E|----------------------------------|
B|----------------------------------|
G|----------------------------------|
D|----------------------------------|
A|----------------------------------|
D|-11111111111111114444444433333333-|

E|--------------------------------|
B|--------------------------------|
G|--------------------------------|  4x
D|-8/7----------------------------|
A|-6/5--6/5-----------------------|
D|----0-6/5-0-000-000-000-000-000-|

E|-------------------------------------------------|
B|-------------------------------------------------|
G|-------------------------------------------------|  2x
D|-------------------------------------------------|
A|-0-----------0---0-------0---0---0---------------|
D|-000-000-000-000-000-000-000-000-000-000-000-000-|
(emphasize on the triplets starting with 2 0's)

E|-------------------------------------------------|
B|-------------------------------------------------|
G|-------------------------------------------------|
D|-------------------------------------------------|
A|-0-----------1---3-------1---3---4---------------|
D|-0-0-0-0-0-0-1-0-3-0-0-0-1-0-3-0-4-0-0-0-0-0-0-0-|

E|----------------|             |------------------|
B|----------------|             |------------------|
G|---------6/8----| 1st ending  |------------------| 2nd ending
D|---4---4--------|             |---3--------------|
A|-6---3----------|             |-5-----------*----|
D|------------6-5-|             |-----6-5-1-0-3----|
                                (* = pinch harmonic)
E|-------------------------------------------------------------------------|
B|-------------------------------------------------------------------------|
G|-------------------------------------------------------------------------|
D|----------8/7-----------------8/7---------8/7-----------------8/7--------|
A|-3-2-/6---6/5---------6/5-----6/5---------6/5---------6/5-----6/5--------|
D|-3-2-/6-------0-0-0-0-6/5-0-0-----0-1-4-3-----0-0-0-0-6/5-0-0-----000-000|

E|--------------------------------|
B|--------------------------------|
G|--------------------------------|  4x
D|-8/7----------------------------|
A|-6/5--6/5-----------------------|
D|----0-6/5-0-000-000-000-000-000-|

E|-------------------------------------------------|
B|-------------------------------------------------|
G|-------------------------------------------------|
D|-------------------------------------------------|
A|-0-----------0---0-------0---0---0---------------|
D|-000-000-000-000-000-000-000-000-000-000-000-000-|
(emphasize on the triplets starting with 2 0's)

E|-----------------------------------|
B|-----------------------------------|
G|-----------------------------------|
D|-----------------------------------|
A|-0-----------0---0-------0---0---0-|
D|-000-000-000-000-000-000-000-000-0-|

E|----------------------------------------------------|
B|----------------------------------------------------|
G|----------------------------------------------------|
D|----------------------------------------------------|
A|-3----3----3----3----3-------3----3----3-----7------|
D|--1-0--1-0--1-0--1-0--1-0-1---1-0--1-0--1-0-3-5-0-1-|
(mostly palm muted)
E|--------------------------------------------------------|
B|--------------------------------------------------------|
G|--------------------------------------------------------|
D|--------------------------------------------------------|
A|-3----3----3----3----3-------3----3----3-----7------8-7-|
D|--1-0--1-0--1-0--1-0--1-0-1---1-0--1-0--1-0-3-5-0-5-----|
(still mostly palm muted)

OOOOAAAAAHH BANG YOUR HEAD!
E|---------------------------------------------------------|
B|---------------------------------------------------------|
G|---------------------------------------------------------|
D|---------------------------------------------------------|
A|-3----3----3----3------------3----3----3----3--------6-5-|
D|--1-0--1-0--1-0--1-0-1-0-4-3--1-0--1-0--1-0--1-0-1-0-----|

E|---------------------------------------------------------|
B|---------------------------------------------------------|
G|---------------------------------------------------------|
D|---------------------------------------------------------|
A|-3----3----3----3------------3----3----3---1-2-4-5-------|
D|--1-0--1-0--1-0--1-0-1-0-4-3--1-0--1-0--1--1-2-4-5-------|

E|-----------------------------------------------------------|
B|-----------------------------------------------------------|
G|-----------------------------------------------------------|  4x
D|-----------------------------------------------------------|
A|-0-0-0-0-0-0-0-0-0-0-0-0-1/2-4/5-0-0-0-0-0-0-0-0-1-2-4-4/5-|
D|-0-0-0-0-0-0-0-0-0-0-0-0-1/2-4/5-0-0-0-0-0-0-0-0-1-2-4-4/5-|

E|--------------------------------|
B|--------------------------------|
G|--------------------------------|  4x
D|-8/7----------------------------|
A|-6/5--6/5-----------------------|
D|----0-6/5-0-000-000-000-000-000-|

E|---------------------------------------------|
B|---------------------------------------------|
G|---------------------------------------------|  repeat during solo
D|---------------------------------------------|
A|-------0--------0--------0-------------------|
D|-0000000--0000000--0000000--000-000-000-000--|

E|------------------------------------------------------------------|
B|------------------------------------------------------------------|
G|------------------------------------------------------------------|
D|------------------------------------------------------------------|
A|------------------------------------------------------------------|
D|-0000000011111111444444443333333300000000111111114444444433333333-|

E|----|
B|----|
G|----|
D|----|
A|-0--|
D|-0--|
(let it ring out)

there ya go. comment er whatever.
dont like it, dont bitch to me. tab it yourself.
later.





Comments


Popular Lazarus Ad tabs & chords
Absolute Power Tabs
Black Rivers Flow Intro Tabs
Last Breath Tabs
Thou Shall Not Fear Tabs
Thou Shall Not Fear Intro Tabs
Thou Shall Not Fear Intro 1 Tabs
Thou Shall Not Fear Intro 2 Tabs


Song lyrics



↑ Back to top | Tablatures and chords are parodies/interpretations of the original songs. You may use it for private study, scholarship, research or language learning purposes only
© 2014 AZChords.com Contact us | Privacy policy | DMCA | Add/correct tabs | Request tabs | Top 50 tabs