>
 >
Absolute Power

Absolute Power Guitar Tabs

Lazarus Ad - Absolute Power chords, tabs, tablatures, lyrics

Guitar lessons | Add/correct | Request | Top 50 tabs Artists:  A B C D E F G H I J K L M N O P Q R S T U V W X Y Z 0-9

Absolute Power Guitar Tabs – Lazarus Ad

CD, Sheet music, Poster

Do you like Absolute Power? Share with your friends now
Tabs
-------------------------------------------------------------------------------
     Absolute Power - Lazarus A.D.
-------------------------------------------------------------------------------



Tuning: Drop D
                                (Section A)    
e|---------------------------------------------------------------------------|
B|---------------------------------------------------------------------------|
G|---------------------------------------------------------------------------|
D|------7----7---------------------------------------------------------------|
A|------5----3----5/6\5-3--0-0-1-0-0-1-0-0-1-0-0-1-0-0-1p0-------------------|
D|--0-0--0-0--0-0-5/6\5-3--0-0-1-0-0-1-0-0-1-0-0-1-0-0-1p0-------------------|
 pm . .  . .  . .          . .   . .   . .   . .   . .

e|---------------------------------------------------------------------------|
B|---------------------------------------------------------------------------|
G|---------------------------------------------------------------------------|
D|------7----7----------------------------------------1----------------------|
A|------5----3----5/6\5-3--0-0-1---5------5h6p5-------1-3-1-0----------------|
D|--0-0--0-0--0-0-5/6\5-3--0-0-1-----3-0--------6-5-0---3-1-0----------------| 
 pm . .  . .  . .          . .
 (repeat x2)


 
e|---------------------------------------------------------------------------|
B|---------------------------------------------------------------------------|
G|---------------------------------------------------------------------------|
D|--------------------0------------------------------------------------------|
A|--3-1-0-4-3-0-4--7--0------------------------------------------------------|
D|--3-1-0-4-3-0-6--7--0------------------------------------------------------|
 pm . . . . . .       let ring



                                (Section B)
e|---------------------------------------------------------------------------|
B|---------------------------------------------------------------------------|
G|---------------------------------------------------------------------------|
D|--------3\2----------------------3\2---------------------------------------|
A|--0-0-0-3\2--0-0-0----5----0-0-0-3\2-0-0-0-1-------------------------------|
D|--0-0-0-3\2--0-0-0-/6------0-0-0-3\2-0-0-0---2-----------------------------|

 pm . . .      . . .         . . .     . . . 


e|---------------------------------------------------------------------------|
B|---------------------------------------------------------------------------|
G|---------------------------------------------------------------------------|
D|--------3\2--------------------5--5----------------------------------------|
A|--0-0-0-3\2-0-0-0----5--0-0-0--3--3-------3---2----------------------------|
D|--0-0-0-3\2-0-0-0-/6----0-0-0----0--0-000-3-0-2----------------------------|
 pm . . .     . . .       . . .    .  . ...   .
 (repeat x4)



e|---------------------------------------------------------------------------|
B|---------------------------------------------------------------------------|
G|---------------------------------------------------------------------------|
D|--------------3\2------------------3\2-------------------------------------|
A|--4-7---0-0-0-3\2-0-0-0----5-0-0-0-3\2-0-0-0-1-----------------------------|
D|--6-7---0-0-0-3\2-0-0-0-/6---0-0-0-3\2-0-0-0---2---------------------------|
 pm       . . .     . . .      . . .     . . . 
 (repeat x1)


                                (Section C)
e|---------------------------------------------------------------------------|
B|---------------------------------------------------------------------------|
G|---------------------------------------------------------------------------|
D|---------------------------------------------------------------------------|
A|---------8-------------8-------------8-------------8-----------------------|
D|--0-8-12---12-8-0-8-12---12-8-0-8-12---12-8-0-8-12---12-8------------------|
 pm . .  .    . . . .  .    . . . .  .    . . . .  .    . .
e|---------------------------------------------------------------------------|
B|---------------------------------------------------------------------------|
G|---------------------------------------------------------------------------|
D|---------------------------------------------------------------------------|
A|-----------8------------8------------8------------8------------------------|
D|--0-7-12-7---7-0-7-12-7---7-0-7-12-7---7-0-7-12-7---7----------------------|
 pm . .   .    . . .    .   . . .    .   . . .    .   .
(repeat x3)
e|---------------------------------------------------------------------------|
B|---------------------------------------------------------------------------|
G|------------------------------[VARIATION]----------------------------------|
D|---------------------------------------------------------------------------|
A|---------8-------------8-------------8------10h12p10\8-10-8-0--------------|
D|--0-8-12---12-8-0-8-12---12-8-0-8-12---12-8--------------------------------|
 pm . .  .    . . . .  .    . . . .  .    . .



                                   (Section D)
e|---------------------------------------------------------------------------|
B|---------------------------------------------------------------------------|
G|---------------------------------------------------------------------------|
D|--------------0------------------------------------------------------------|
A|--0--3--4--7--0------------------------------------------------------------|
D|--0--3--6--7--0------------------------------------------------------------|



                                               T                  T
e|----------14-17/18\17-14------------------14-19\18-17-14--14-17 22\18\17---|
B|--------15--------------15--------------15--------------15-----------------|
G|------14------------------14----------14-----------------------------------|
D|----16----------------------16------16-------------------------------------|
A|--17--------------------------17--17---------------------------------------|
D|---------------------------------------------------------------------------|
    T           T        T
e|--20p17h18p17h22p17h18-19\18p17p14-----------------------------------------|
B|----------------------------------15~--------------------------------------|
G|---------------------------------------------------------------------------|
D|---------------------------------------------------------------------------|
A|---------------------------------------------------------------------------|
D|---------------------------------------------------------------------------|



                                 (Section E)
e|---------------------------------------------------------------------------|
B|---------------------------------------------------------------------------|
G|---------------------------------------------------------------------------|
D|---------------------------------------------------------------------------|
A|---6p0-0-0-3p0-6p0-0-0-0-0-3p0-0-0-6p0-6p0-0-0-0-0-------------------------|
D|---6p0-0-0-3p0-6p0-0-0-0-0-3p0-0-0-6p0-6p0-0-0-0-0-------------------------|
 pm      . .         . . . .     . .         . . . .
e|---------------------------------------------------------------------------|
B|---------------------------------------------------------------------------|
G|---------------------------------------------------------------------------|
D|---------------------------------------------------------------------------|
A|---6p0-0-0-3p0-6p0-0-0-0-0-------------------------------------------------|
D|---6p0-0-0-3p0-6p0-0-0-0-0-3-0-3-6-0-6-7-0-7-6-0-3-------------------------|
 pm      . .         . . . .   
 (repeat x3)

                 
                        (BACK INTO SECTION C)
                        


                               (Section F)
e|---------------------------------------------------------------------------|
B|---------------------------------------------------------------------------|
G|---------------------------------------------------------------------------|
D|----------------------------5--5-------------------------------------------|
A|----------------------------3--3-------------------------------------------|
D|--000-000-000-000-000-000-0--0---------------------------------------------|
 pm ... ... ... ... ... ... .  .




e|---------------------------------------------------------------------------|
B|---------------------------------------------------------------------------|
G|---------------------------------------------------------------------------|
D|-------------------------5--4------------------------------5--5------------|
A|--------------------5------6--5----------------------------3--3------------|
D|--000-000-000-000-/6-8-7---------000-000-000-000-000-000-0---0---1p0----|
 pm ... ... ... ...                ... ... ... ... ... ... .   .
 (repeat x2)




e|---------------------------------------------------------------------------|
B|---------------------------------------------------------------------------|
G|---------------------------------------------------------------------------|
D|---------------------------5--4------------------0-------------------------|
A|--------------------5--------6--5----0--3--4--7--0-------------------------|
D|--000-000-000-000-/6--8-7------------0--3--6--7--0-------------------------|
 pm ... ... ... ...



e|---------------------------------------------------------------------------|
B|---------------------------------------------------------------------------|
G|---------------------------------------------------------------------------|
D|---------------------------------------------------------------------------|
A|--6p0-0-0-3p0-6p0-0-0-0-0-3p0-0-0-6p0-6p0-0-0-0-0--------------------------|
D|--6p0-0-0-3p0-6p0-0-0-0-0-3p0-0-0-6p0-6p0-0-0-0-0--------------------------|
 pm     . .         . . . .     . .         . . . .

e|---------------------------------------------------------------------------|
B|---------------------------------------------------------------------------|
G|---------------------------------------------------------------------------|
D|---------------------------------------------------------------------------|
A|--6p0-0-0-3p0-6p0-0-0-0-0-3-0-3-6-0-6-7-0-7-6-0-3--------------------------|
D|--6p0-0-0-3p0-6p0-0-0-0-0-3-0-3-6-0-6-7-0-7-6-0-3--------------------------|
 pm     . .         . . . .    
                           
                       (Repeat till fade out)



************************************

| /   slide up
| \   slide down
| h   hammer-on
| p   pull-off
| ~   vibrato
| +   harmonic
| x   Mute note
| b   Bend
| pb  Pre-bend
| br  Bend release
| pbr Pre-bend release
| brb Bend release bend

************************************





Comments


Popular Lazarus Ad tabs & chords
Black Rivers Flow Intro Tabs
Forged In Blood Tabs
Last Breath Tabs
Thou Shall Not Fear Tabs
Thou Shall Not Fear Intro Tabs
Thou Shall Not Fear Intro 1 Tabs
Thou Shall Not Fear Intro 2 Tabs


Song lyrics



↑ Back to top | Tablatures and chords are parodies/interpretations of the original songs. You may use it for private study, scholarship, research or language learning purposes only
© 2014 AZChords.com Contact us | Privacy policy | DMCA | Add/correct tabs | Request tabs | Top 50 tabs