» » »

The Revisionist Tabs (ver.1)

Artists:  A B C D E F G H I J K L M N O P Q R S T U V W X Y Z # 

The Revisionist Tabs (ver.1)

Lawrence Arms
Rating:
0/5 (0 votes)

Hard to play? Try these video lessons and learn fast.
                The Lawrence Arms - The Revisionist

It sounds kind of alright compared to the album version, 
although it's very probable that Chris didn't quite play 
it like this. Also, verse 2 is sort of a rough guideline 
here. He's basically just messing around a bit, so try 
making up some stuff of your own. Hope you like it.

(strumming not indicated)

verse 1

e|-x-----x-x-----|
B|-x-----x-x-----|
G|-7-----7-6-----|
D|-x-----x-x-----|
A|-5-----5-5-----|
E|-3-----7-7-----|

prechorus

D5 - A5 - G5
Bm - A - G

chorus

D - A - Bm - A - G
Bm - A - G
Bm - A - G

e|---------------------|
B|---------------------|
G|-7-6--/7-------------|
D|-x-x---x-------------|
A|-5-4--/5-------------|
E|---------------------|


verse 2

|-14-14-14----10-|
|----------------|
|----------------|
|----------------|
|----------------|
|----------------|

|-----------|
|-----------|
|--7-6------|
|------9-7--|
|-----------|
|-----------|

|-10~-------14-14---| (lots of pickscratching and messing around)
|-------------------|
|-------------------|
|-------------------|
|-------------------|
|-------------------|

|-------|
|-------|
|---7~--|
|-------|
|-------|
|-------|

prechorus

chorus

"The revisionist..."
 
     same as intro

"The time is never right..."

 G - A - Bm

outro

|------------------------------------------|
|------------------------------------------|
|-6^7^6-----------------6^7^6-----------4~-|
|-------7-7/9 7-7/2-4----------7^9^7-2--4~-|
|---------------------------------------2~-|
|------------------------------------------|
            
Hard to play? Try these video lessons and learn fast. | Correct




comments powered by Disqus
↑ Back to top | Tablatures and chords are parodies/interpretations of the original songs. You may use it for private study, scholarship, research or language learning purposes only