» » »

Lawrence Arms, Ramblin Boys Of Pleasure Bass tabs (ver.1)

Artists:  A B C D E F G H I J K L M N O P Q R S T U V W X Y Z # 

Ramblin Boys Of Pleasure Bass tabs (ver.1)

Lawrence Arms Tabs
 Rating:
4/5 (4 votes)
Ramblin Boys Of Pleasure lessons Tabs too difficult? Try these video lessons and learn fast
                -------------------------------------------------------------------------------
		 The Ramblin' Boys of Pleasure - The Lawrence Arms
-------------------------------------------------------------------------------


Tuning: Standard

Intro x2
G|---------------------------------------------------------------------------|
D|---------------------------------------------------------------------------|
A|-3~------------------------------------------------------------------------|
E|----3~-1~------------------------------------------------------------------|

Intro part 2 x1
G|---------------------------------------------------------------------------|
D|---------------------------------------------------------------------------|
A|-3~------------------------------------------------------------------------|
E|----3~-5~-1~---------------------------------------------------------------|

Intro part 3 x1
G|---------------------------------------------------------------------------|
D|---------------------------------------------------------------------------|
A|-3~------------------------------------------------------------------------|
E|----3~-1111~---------------------------------------------------------------|

Verse (sit down, shut up)
G|---------------------------------------------------------------------------|
D|--------------------3333333333333333---------------------------------------|
A|-00000000-333333333------------------000000000-33333333--------------------|
E|--------------------------------------------------------111111111111331----|

(Its a bird, Its a plane)
G|---------------------------------------------------------------------------|
D|-------------------------------333333333-----------------------------335532|
A|-333333333-----------000000000-----------333333333----------00000000-------|
E|-----------333333333-------------------------------33333333----------------|

Bridge (There's proof) x4
G|---------------------------------------------------------------------------|
D|---------------------------------------------------------------------------|
A|-0000000000000000----------------------------------------------------------|
E|------------------1111111111111111-----------------------------------------|

(Things have changed forever)x4
G|---------------------------------------------------------------------------|
D|---------------------------------------------------------------------------|
A|-000000000-333333333-------------------------------------------------------|
E|---------------------1111111111111111--------------------------------------|

Outro
G|---------------------------------------------------------------------------|
D|---------------------------------------------------------------------------|
A|-0~--------0~---------0~-3~----0~------------------------------------------|
E|----3~-1~-----3~--1~--------1~----3~-1~------------------------------------|




| /  slide up
| \  slide down
| h  hammer-on
| p  pull-off
| ~  vibrato
| +  harmonic
| x  Mute note
===============================================================================
            
Submit corrections

comments powered by Disqus
↑ Back to top | Lawrence Arms Bass for Ramblin Boys Of Pleasure. Lyrics for acoustic guitar and electric guitar. Tablatures and chords are parodies/interpretations of the original songs. You may use it for private study, scholarship, research or language learning purposes only