» » »

Lawrence Arms, The First Eviction Notice Tabs (ver.1)

Artists:  A B C D E F G H I J K L M N O P Q R S T U V W X Y Z # 

The First Eviction Notice Tabs (ver.1)

Lawrence Arms Tabs
Rating:
4/5 (1 vote)
The First Eviction Notice lessons Tabs too difficult? Try these video lessons and learn fast
                -------------------------------------------------------------------------------
                THE FIRST EVICTION NOTICE - The Lawrence Arms
-------------------------------------------------------------------------------


  I've been looking all over the internet for Lawrence Arms tabs, but I
haven't been having any luck. Here is my attempt at tabbing one of their
songs, which is off of their album Apathy and Exhaustion.
  Any spot with lyrics but without tablature is a part I am not sure of, but I am
guessing they keep going through the same E5, B5, C#5, A5 pattern. Although
this probably isn't right, it should give you a fairly good idea of how it
is played.

Tab Legend:

pm... : Palm Muted
/     : Slide
x     : a "rake" like mute
~     : Let ring


 Clean
e|---------------------------------------------------------------------------|
B|---------------------------------------------------------------------------|
G|-9-9-9-9-9-9-9-9-----------------------------------------------------------|
D|-9-9-9-9-9-9-9-9-9-9-9-9-9-9-9-9-11-11-11-11-11-11-11-11-7-7-7-7-7-7-7-7---|
A|-7-7-7-7-7-7-7-7-9-9-9-9-9-9-9-9-11-11-11-11-11-11-11-11-7-7-7-7-7-7-7-7---|
E|-----------------7-7-7-7-7-7-7-7-9--9--9--9--9--9--9--9--5-5-5-5-5-5-5-5---|
pm........................................................................
          A temple       Corroded           Eviction              Pending

 Distorted
e|---------------------------------------------------------------------------|
B|---------------------------------------------------------------------------|
G|-9-9-9-9-9-9-9-9-----------------------------------------------------------|
D|-9-9-9-9-9-9-9-9-9-9-9-9-9-9-9-9-11-11-11-11-11-11-11-11-7-7-7-7-7-7-7-7---|
A|-7-7-7-7-7-7-7-7-9-9-9-9-9-9-9-9-11-11-11-11-11-11-11-11-7-7-7-7-7-7-7-7---|
E|-----------------7-7-7-7-7-7-7-7-9--9--9--9--9--9--9--9--5-5-5-5-5-5-5-5---|
pm........................................................................
          Embrace Me      Cold Night        Grey Sky            Street Light

e|---------------------------------------------------------------------------|
B|---------------------------------------------------------------------------|
G|-9-9-9-9-9-9-9-9-----------------------------------------------------------|
D|-9-9-9-9-9-9-9-9-9-9-9-9-9-9-9-9-11-11-11-11-11-11-11-11-7-7-7-7-7-7-7-7---|
A|-7-7-7-7-7-7-7-7-9-9-9-9-9-9-9-9-11-11-11-11-11-11-11-11-7-7-7-7-7-7-7-7---|
E|-----------------7-7-7-7-7-7-7-7-9--9--9--9--9--9--9--9--5-5-5-5-5-5-5-5---|
        Lyrical          Descension        Attention            Fading

e|---------------------------------------------------------------------------|
B|---------------------------------------------------------------------------|
G|-9-9-9-9-9-9-9-9-----------------------------------------------------------|
D|-9-9-9-9-9-9-9-9-9-9-9-9-9-9-9-9-11-11-11-11-11-11-11-11-7-7-7-7-7-7-7-7---|
A|-7-7-7-7-7-7-7-7-9-9-9-9-9-9-9-9-11-11-11-11-11-11-11-11-7-7-7-7-7-7-7-7---|
E|-----------------7-7-7-7-7-7-7-7-9--9--9--9--9--9--9--9--5-5-5-5-5-5-5-5---|
        Breathless        I'm a mess       kissless              I'm in di-
                                                                     stress

e|---------------------------------------------------------------------------|
B|---------------------------------------------------------------------------|
G|-9-9-9-9-9-9-9-9-----------------------------------------------------------|
D|-9-9-9-9-9-9-9-9-9-9-9-9-9-9-9-9-11-11-11-11-11-11-11/9-9-7-7-7-7-7-7-7-7--|
A|-7-7-7-7-7-7-7-7-9-9-9-9-9-9-9-9-11-11-11-11-11-11-11-9-9-7-7-7-7-7-7-7-7--|
E|-----------------7-7-7-7-7-7-7-7/9--9--9--9--9--9--9--7-7-5-5-5-5-5-5-5-5--|
									I'm

e|---------------------------------------------------------------------------|
B|---------------------------------------------------------------------------|
G|-9-9-9-9-9-9-9-9-----------------------------------------------------------|
D|-9-9-9-9-9-9-9-9-9-9-9-9-9-9-9-9-11-11-11-11-11-11-11/9-9-7-7-7-7-7-7-7-7--|
A|-7-7-7-7-7-7-7-7-9-9-9-9-9-9-9-9-11-11-11-11-11-11-11-9-9-7-7-7-7-7-7-7-7--|
E|-----------------7-7-7-7-7-7-7-7/9--9--9--9--9--9--9--7-7-5-5-5-5-5-5-5-5--|
   Barely          breath-                                      ing.

e|---------------------------------------------------------------------------|
B|---------------------------------------------------------------------------|
G|-9-9-9-9-9-9-9-9-----------------------------------------------------------|
D|-9-9-9-9-9-9-9-9-9-9-9-9-9-9-9-9-11-11-11-11-11-11-11-11-7-7-7-7-7-7-7-7---|
A|-7-7-7-7-7-7-7-7-9-9-9-9-9-9-9-9-11-11-11-11-11-11-11-11-7-7-7-7-7-7-7-7---|
E|-----------------7-7-7-7-7-7-7-7-9--9--9--9--9--9--9--9--5-5-5-5-5-5-5-5---|
pm........................................................................
         This crowning anguish             locked up nervous reflex

e|---------------------------------------------------------------------------|
B|---------------------------------------------------------------------------|
G|-9-9-9-9-9-9-9-9-----------------------------------------------------------|
D|-9-9-9-9-9-9-9-9-9-9-9-9-9-9-9-9-11-11-11-11-11-11-11-11-7-7-7-7-7-7-7-7---|
A|-7-7-7-7-7-7-7-7-9-9-9-9-9-9-9-9-11-11-11-11-11-11-11-11-7-7-7-7-7-7-7-7---|
E|-----------------7-7-7-7-7-7-7-7-9--9--9--9--9--9--9--9--5-5-5-5-5-5-5-5---|
pm............................................................
          I've got to build up from the inside

e|---------------------------------------------------------------------------|
B|---------------------------------------------------------------------------|
G|-9-9-9-9-9-9-9-9-----------------------------------------------------------|
D|-9-9-9-9-9-9-9-9-9-9-9-9-9-9-9-9-11-11-11-11-11-11-11-11-7-7-7-7-7-7-7-7---|
A|-7-7-7-7-7-7-7-7-9-9-9-9-9-9-9-9-11-11-11-11-11-11-11-11-7-7-7-7-7-7-7-7---|
E|-----------------7-7-7-7-7-7-7-7-9--9--9--9--9--9--9--9--5-5-5-5-5-5-5-5---|
        A relapse       reflection           distorted           repressions

e|---------------------------------------------------------------------------|
B|---------------------------------------------------------------------------|
G|-9-9-9-9-9-9-9-9-----------------------------------------------------------|
D|-9-9-9-9-9-9-9-9-9-9-9-9-9-9-9-9-11-11-11-11-11-11-11-11-7-7-7-7-7-7-7-7---|
A|-7-7-7-7-7-7-7-7-9-9-9-9-9-9-9-9-11-11-11-11-11-11-11-11-7-7-7-7-7-7-7-7---|
E|-----------------7-7-7-7-7-7-7-7-9--9--9--9--9--9--9--9--5-5-5-5-5-5-5-5---|
        Smiling          Spitefully        Longing for you to sew up my seams

e|---------------------------------------------------------------------------|
B|---------------------------------------------------------------------------|
G|-9-9-9-9-9-9-9-9-----------------------------------------------------------|
D|-9-9-9-9-9-9-9-9-9-9-9-9-9-9-9-9-11-11-11-11-11-11-11/9-9-7-7-7-7-7-7-7-7--|
A|-7-7-7-7-7-7-7-7-9-9-9-9-9-9-9-9-11-11-11-11-11-11-11-9-9-7-7-7-7-7-7-7-7--|
E|-----------------7-7-7-7-7-7-7-7/9--9--9--9--9--9--9--7-7-5-5-5-5-5-5-5-5--|
									I'm

e|---------------------------------------------------------------------------|
B|---------------------------------------------------------------------------|
G|-9-9-9-9-9-9-9-9-----------------------------------------------------------|
D|-9-9-9-9-9-9-9-9-9-9-9-9-9-9-9-9-11-11-11-11-11-11-11/9-9-7-7-7-7-7-7-7-7--|
A|-7-7-7-7-7-7-7-7-9-9-9-9-9-9-9-9-11-11-11-11-11-11-11-9-9-7-7-7-7-7-7-7-7--|
E|-----------------7-7-7-7-7-7-7-7/9--9--9--9--9--9--9--7-7-5-5-5-5-5-5-5-5--|
   Barely          breath-                                      ing.

e|---------------------------------------------------------------------------|
B|---------------------------------------------------------------------------|
G|--9------------------------------------------------------------------------|
D|--9-------------------------------9---------------------------11-----------|
A|--7-------------------------------9---------------------------11-----------|
E|----------------------------------7---------------------------9------------|
       I've abandoned old identities, skin I couldn't fit into, songs I 

e|---------------------------------------------------------------------------|
B|---------------------------------------------------------------------------|
G|------------------------------------------------9--------------------------|
D|--------------------7---------------------------9---9----11----------------|
A|--------------------7---------------------------7---9----11----------------|
E|--------------------5-------------------------------7----9-----------------|
      couldn't write, my voice will fade into the starless night

e|---------------------------------------------------------------------------|
B|---------------------------------------------------------------------------|
G|-9------------9-------------9-----------6~---9-----------------------------|
D|-9---9----7---9---9----11---9---9----7-------9---9----11-------------------|
A|-7---9----7---7---9----11---7---9----7-------7---9----11-------------------|
E|-----7----5-------7----9--------7----5-----------7----9--------------------|

*note: This is just a guess... a complete shot in the dark.
e|---------------------------------------------------------------------------|
B|---------------------------------------------------------------------------|
G|-9--9--9--9--9--9--9--9--11-11-11-11-11-11-11-11-x-x-13-x-x-15-------------|
D|-9--9--9--9--9--9--9--9--11-11-11-11-11-11-11-11-x-x-x--x-x-x--------------|
A|-7--7--7--7--7--7--7--7--9--9--9--9--9--9--9--9-/x-x-11-x-x-13-------------|
E|---------------------------------------------------------------------------|
        And can I get much blin-               der?

e|---------------------------------------------------------------------------|
B|---------------------------------------------------------------------------|
G|-9--9--9--9--9--9--9--9--11-11-11-11-11-11-11-11-x-x-13-x-x-15-------------|
D|-9--9--9--9--9--9--9--9--11-11-11-11-11-11-11-11-x-x-x--x-x-x--------------|
A|-7--7--7--7--7--7--7--7--9--9--9--9--9--9--9--9-/x-x-11-x-x-13-------------|
E|---------------------------------------------------------------------------|
  And can I kick myself much hard-            er?

e|---------------------------------------------------------------------------|
B|---------------------------------------------------------------------------|
G|-9-9-9-9-11-11-11-11---------11-11-11-11-------------11-11-11-11---------11|
D|-9-9-9-9-11-11-11-11-9-9-9-9-11-11-11-11-11-11-11-11-11-11-11-11-7-7-7-7-11|
A|-7-7-7-7-9--9--9--9--9-9-9-9-9--9--9--9--11-11-11-11-9--9--9--9--7-7-7-7-9-|
E|---------------------7-7-7-7-------------9--9--9--9--------------5-5-5-5---|
  Have I accepted this, To torture myself? You can't see me,      Have I inv-

e|-----------|
B|-----------|
G|-11-11-11--|
D|-11-11-11--|
A|-9--9--9---|
E|-----------|
  ted y-

e|---------------------------------------------------------------------------|
B|---------------------------------------------------------------------------|
G|-9-9-9-9-9-9-9-9-----------------------------------------------------------|
D|-9-9-9-9-9-9-9-9-9-9-9-9-9-9-9-9-11-11-11-11-11-11-11/9-9-7-7-7-7-7-7-7-7--|
A|-7-7-7-7-7-7-7-7-9-9-9-9-9-9-9-9-11-11-11-11-11-11-11-9-9-7-7-7-7-7-7-7-7--|
E|-----------------7-7-7-7-7-7-7-7/9--9--9--9--9--9--9--7-7-5-5-5-5-5-5-5-5--|
						  -ou?

e|---------------------------------------------------------------------------|
B|---------------------------------------------------------------------------|
G|-9-9-9-9-9-9-9-9-----------------------------------------------------------|
D|-9-9-9-9-9-9-9-9-9-9-9-9-9-9-9-9-11-11-11-11-11-11-11/9-9-7-7-7-7-7-7-7-7--|
A|-7-7-7-7-7-7-7-7-9-9-9-9-9-9-9-9-11-11-11-11-11-11-11-9-9-7-7-7-7-7-7-7-7--|
E|-----------------7-7-7-7-7-7-7-7/9--9--9--9--9--9--9--7-7-5-5-5-5-5-5-5-5--|

e|---------------------------------------------------------------------------|
B|---------------------------------------------------------------------------|
G|-9-9-9-9-9-9-9-9-----------------------------------------------------------|
D|-9-9-9-9-9-9-9-9-9-9-9-9-9-9-9-9-11-11-11-11-11-11-11-11-------------------|
A|-7-7-7-7-7-7-7-7-9-9-9-9-9-9-9-9-11-11-11-11-11-11-11-11-------------------|
E|-----------------7-7-7-7-7-7-7-7-9--9--9--9--9--9--9--9--------------------|
         I'm             barely            breathing
        You're so        easy to           believe in             
        And it's         so                depressing

e|---------------------------------------------------------------------------|
B|---------------------------------------------------------------------------|
G|--9----9-------------------------------------------------------------------|
D|--9----9---9----9----11------11--------------------------------------------|
A|--7----7---9----9----11------11--------------------------------------------|
E|-----------7----7----9-------9---------------------------------------------|
    That I'm always second guessing
    That I'm always second guessing
    That I'm always second guessing
					my-

e|---------------------------------------------------------------------------|
B|---------------------------------------------------------------------------|
G|-9-9-9-9-9-9-9-9-----------------------------------------------------------|
D|-9-9-9-9-9-9-9-9-9-9-9-9-9-9-9-9-11-11-11-11-11-11-11/9-9-7-7-7-7-7-7-7-7--|
A|-7-7-7-7-7-7-7-7-9-9-9-9-9-9-9-9-11-11-11-11-11-11-11-9-9-7-7-7-7-7-7-7-7--|
E|-----------------7-7-7-7-7-7-7-7/9--9--9--9--9--9--9--7-7-5-5-5-5-5-5-5-5--|
           					 self	

e|---------------------------------------------------------------------------|
B|---------------------------------------------------------------------------|
G|-9-9-9-9-9-9-9-9-----------------------------------------------------------|
D|-9-9-9-9-9-9-9-9-9-9-9-9-9-9-9-9-11-11-11-11-11-11-11/9-9-7-7-7-7-7-7-7-7--|
A|-7-7-7-7-7-7-7-7-9-9-9-9-9-9-9-9-11-11-11-11-11-11-11-9-9-7-7-7-7-7-7-7-7--|
E|-----------------7-7-7-7-7-7-7-7/9--9--9--9--9--9--9--7-7-5-5-5-5-5-5-5-5--|
  Ye-									 ah	

e|----|
B|----|
G|-9--| 
D|-9--|
A|-7~-|
E|----|

===============================================================================
            
Submit corrections

comments powered by Disqus
↑ Back to top | Lawrence Arms Tabs for The First Eviction Notice. Lyrics for acoustic guitar and electric guitar. Tablatures and chords are parodies/interpretations of the original songs. You may use it for private study, scholarship, research or language learning purposes only