» » »

Lawrence Arms, The Disaster March Bass tabs (ver.2)

Artists:  A B C D E F G H I J K L M N O P Q R S T U V W X Y Z # 

The Disaster March Bass tabs (ver.2)

Lawrence Arms Tabs
 Rating:
4/5 (4 votes)
The Disaster March lessons Tabs too difficult? Try these video lessons and learn fast
                G|---------------------------------------------|
D|---------------------------------------------|
A|----22222222---------------------------------|
E|-------------2222222222222222----------------|
                  "there was a time and a place.."

G|---------------------------------------------|
D|---------------------------------------------|
A|-2222222222222222----------------------------|
E|------------------2222222222222222-----------|
                        "that was all full of mistakes.."

G|---------------------------------------------|
D|---------------------------------------------|
A|-222222222222/44-22--------------------------|
E|---------------------2222222222222222--------|

G|---------------------------------------------|
D|---------------------------------------------|
A|-222222222222-1111---------------------------|
E|---------------------2222222222222222--------|

G|---------------------------------------------|
D|---------------------------------------------|
A|-2222222222222222----------------------------|
E|---------------------------------------------|

G|---------------------------------------------| x4
D|---4444444444-----------4--4--4--4-----------|
A|--------------4444----22-22-22-22------------|
E|-2-------------------------------------------|
        "I was more than alive.."

G|---------------------------------------------|x2
D|-----------6-666---4-444---4--4--------------|
A|---4-444-4------2--------2---2--2------------|
E|-2-------------------------------------------|

G|---------------------------------------------|x2
D|-5-555555-4-444444----4---4----4---4---------|
A|--------------------2---2---2-2--2--2--------|
E|---------------------------------------------|

G|---------------------------------------------|x2
D|-----------------------4-------4-------------|
A|-------------------2-22-2-22-22-222222-------|
E|-22222222-11111111---------------------------|
  "about YOUUUU"


G|-------------|--------------------------------------------------|
D|-1~----------|--------------------------------------------------|
A|--------2~---|-/1-1111111-22222222------------------------------|
E|-------------|--------------------2-2222222-1-1111111-0-0000000-|
"Ugly is ugly"    "Transformation is a dream"

G|---------------------------------------------|
D|---------------------------------------------|
A|-22222222---------------------------22222222-|
E|----------22222222-11111111-0000000----------|

G|------------|
D|------------|
A|------------|
E|-2~--1~--0~-|



G|------------------------------|x8
D|-1-1-1111---------------------|
A|----------44-4-22-2/----------|
E|------------------------------|
   "im a drunk with a job i got pictures to prove it.."

G|---------------------------------------------|x2
D|-1-1111111111-2-444-------------2-444--------|
A|-------------------2-22222222222-------------|
E|---------------------------------------------|


G|---------------------------------------------|x4  
D|-1111111111111111----------------------------|    
A|------------------4444-2222222222222222-4----|    
E|---------------------------------------------|    
  "i am written on the subway walls"


        G|-------------------------------------------|x4
        D|-----------------------4----4----4----4----|
        A|--4--4---------------22---22---22---22-----|
        E|-------------------------------------------|
"stop me in the streets and parks"


G|----------------------------------------|x3
D|----------------------------------------|
A|---------222222222----------------------|
E|0-0-000-0----------2-2-222-22-11-2222---|


G|-----------------------------------| x1
D|-1111111---------------------------|
A|---------22222222------------------|
E|------------------2222-22-0-2-0-2--|


G|----------------------------------------|x1
D|----------------------------------------|
A|---------222222222----------------------|
E|0-0-000-0----------2-2-222-22-11-2222---|


G|-----------------------------------| x1
D|-1111111---------------------------|
A|---------22222222------------------|
E|------------------2222-22-0-2-0-2--|


G|------------------------------------|
D|------------------------------------|
A|--------2-2-2222--------------------|
E|0-0-0000---------2-2-2222-1-1-1111--|
     "good Friends.."

G|------------------------------------|
D|------------------------------------|
A|--------2-2-2222--------------------|
E|0-0-0000---------2-2-2222-1-1--0~---|

	
            
Submit corrections

comments powered by Disqus
↑ Back to top | Lawrence Arms Bass for The Disaster March. Lyrics for acoustic guitar and electric guitar. Tablatures and chords are parodies/interpretations of the original songs. You may use it for private study, scholarship, research or language learning purposes only