» » »

Devils Takin Names Tabs (ver.1)

Artists:  A B C D E F G H I J K L M N O P Q R S T U V W X Y Z # 

Devils Takin Names Tabs (ver.1)

Lawrence Arms
Rating:
4/5 (3 votes)

Hard to play? Try these video lessons and learn fast.
                The Lawrence Arms - The Devil´s Takin' Names

great song
should be 100% right !

4x                      2x
E|-----------111111111-|--8-8-8-8-8-8-33-11111111-|
A|-000000000-333333333-|--8-8-8-8-8-8-33-11111111-|
D|-222222222-333333333-|--9-9-9-9-9-9-44-22222222-|
G|-222222222-222222222-|-101010101010-55-33333333-|
B|-111111111-111111111-|-101010101010-55-33333333-|
E|-000000000-111111111-|--8-8-8-8-8-8-33-11111111-|

2x                   3x                1x
E|-00-00-00---------|-----------------|------------------|
B|-11-11-11---------|-----------------|------------------|
G|-22-22-22---------|-555------222----|-555--------------|
D|-22-22-22-555-333-|-555-5555-222-33-|-555-555-33333333-|
A|-00-00-00-555-333-|-333-5555-022-33-|-333-555-33333333-|
E|----------333-111-|-----3333-----11-|-----333-11111111-|

E|--8---------------------7-8--8--0000000---------------0000000---------|
B|--8------8-10-8-8/------8-8--8--1111111---------------1111111-65^~----|
G|--9------9--9-9-9/---5/-7-9-10--2222222-555-----------2222222-----75--|
D|-10-3----7--7-7-7/-3-5/---7-----2222222-555-555-33333-2222222-------7-|
A|-10-3-00-0--0-0-0--3-3/---------0000000-333-555-33333-0000000---------|
E|--8-5--------------1------------------------333-11111-----------------|
pm      ..
2x                   3x                1x                 2x                        2x
E|------------------|-----------------|------------------|-------------------------|-------|---0~----3~------5~-|
B|------------------|-----------------|------------------|-------------------------|-------|--1~----3~------5~--|
G|-22-22-22---------|-555------222----|-555--------------|-55555-------22222-------|-5-----|-2~----4~------5~---|
D|-22-22-22-555-333-|-555-5555-222-33-|-555-555-33333333-|-55555-55555-22222-33333-|-5-5-3-|------5~------7~----|
A|-00-00-00-555-333-|-333-5555-022-33-|-333-555-33333333-|-33333-55555-00000-33333-|-3-5-3-|-------------7~-----|
E|----------333-111-|-----3333-----11-|-----333-11111111-|-------33333-------11111-|---3-1-|------------5~------|
            
Hard to play? Try these video lessons and learn fast. | Correct




comments powered by Disqus
↑ Back to top | Tablatures and chords are parodies/interpretations of the original songs. You may use it for private study, scholarship, research or language learning purposes only