» » »

Lawrence Arms, The Corpses Of Our Motivations Bass tabs (ver.1)

Artists:  A B C D E F G H I J K L M N O P Q R S T U V W X Y Z # 

The Corpses Of Our Motivations Bass tabs (ver.1)

Lawrence Arms Tabs
Rating:
0/5 (0 votes)
The Corpses Of Our Motivations lessons Tabs too difficult? Try these video lessons and learn fast
                THE CORPSES OF OUR MOTIVATIONS By The Lawrence Arms 
:
# intro # 
G------(x3)------|-------------------|
D----------------|-------------------|
A----------------|-------------------|
E---00--000--0---|---00--000--0000---|
:
# verse-1 #   *=play x4-5
G------------------------------------------------------------------------->|
D----*--*--*--*--*--*--*--*------------4------2---------------4------2---->|
A---4--4--0--2--4--4--0--2------444--2---2--0---0------444--2---2--0---0-->|
E---------------------------000--------------------000-------------------->|
:
G----------------------------------------------------->|
D----*--*--*--*--*--*--*--*-----*--*--*-----*--*--*--->|
A---4--4--0--2--4--4--0--2---*-4--2--0---*-4--2--0---->|
E---------------------------0-----------0------------->|
:
G-------------------------------------|
D----*--*--*--*--*--*--*--*----*--*---|
A---2--2--0--0--2--2--0--2----2--2----|
E-------------------------------------|
:
# chorus-1 #   *=play x4-5
G-------(x3)-------|---------------------------------------|
D----*------*--*---|----*--*------*------*------*------*---|
A---4---*--2--0----|---0--2---*--2---*--0---*--2---*--0----|
E------0-----------|---------0------0------0------0--------|
:
# verse-2 #   *=play x4-5
G------------------------------------------------------------------->|
D----*--*--*--*--*--*--*--*------*--*--*------*--*--*--*--*--*--*--->|
A---4--4--0--2--4--4--0--2---*--4--2--0---*--4--2--0--4--4--0--2---->|
E---------------------------0------------0-------------------------->|
:
G---------------------------------------------------->|
D----*--*--*--*------*--*--*------------4------2----->|
A---4--4--0--2---*--4--2--0------444--2---2--0---0--->|
E---------------0------------000--------------------->|
:
G-----------------------------|
D----*--*--*--*--*--*--*--*---|
A---2--2--0--0--2--2--0--2----|
E-----------------------------|
:
# chorus-2 #   *=play x4-5
G-------(x3)-------|----------|------(x4)-------|---------(x3)-------->|
D----*------*--*---|----*--*--|----*--*--*--*---|----*--*--*---------->|
A---4---*--2--0----|---0--2---|---4--4--0--2----|---0--2--4--44--22--->|
E------0-----------|----------|-----------------|--------------------->|
:
G------------------|
D----*--*------*---|
A---0--2---*--2----|
E---------0--------|
:
# bridge #
G--------------------------------------------------------------->|
D------2---------------2----------------2----------------------->|
A---0-----0--2--22--0-----2222-2222----------2--0--4-----2--0--->|
E-----------------------------------------0-----------0--------->|
:
G--------------------------------------------------------------|
D---2--------2------------------2---------2----------4----2----|
A--------2--0---4-----2--00----------2--00---4-----22---00-----|
E-----0------------0--------------0-------------0--------------|
:
# outro #   *=play x4
G-----------------------------------------|
D-----------*--*--*--*--*--*----------2---|
A----*--*--2—-2--0--0--0--0-----0--2------|
E---0--0----------------------------------|
:
            
Submit corrections

comments powered by Disqus
↑ Back to top | Lawrence Arms Bass for The Corpses Of Our Motivations. Lyrics for acoustic guitar and electric guitar. Tablatures and chords are parodies/interpretations of the original songs. You may use it for private study, scholarship, research or language learning purposes only