» » »

Spit Shining Shit Tabs (ver.1)

Artists:  A B C D E F G H I J K L M N O P Q R S T U V W X Y Z # 

Spit Shining Shit Tabs (ver.1)

Lawrence Arms
Rating:
5/5 (2 votes)

Hard to play? Try these video lessons and learn fast.
                -------------------------------------------------------------------------------
                     The Lawrence Arms - Spit Shining sh*t
-------------------------------------------------------------------------------


Tuning:EADGBe

e|---------------------------------------------------------------------------|
B|-|.......pm.......|--------------------------------------------------------|
G|--5555555555555555---------------------------------------------------------|
D|--5555555555555555---------------------------------------------------------|
A|--3333333333333333---------------------------------------------------------|
E|---------------------------------------------------------------------------|

e|---------------------------------------------------------------------------|
B|-|.......pm.........................|--------------------------------------|
G|--5555555555555555---------------------------------------------------------|
D|--5555555555555555--3333333333333333-----x2--------------------------------|
A|--3333333333333333--3333333333333333---------------------------------------|
E|--------------------1111111111111111---------------------------------------|
   i was awake, dreaming about sleeping...

e|---------------------------------------------------------------------------|
B|---------------------------------------------------------------------------|
G|--55------22---------------------------------------------------------------|
D|--55--55--22--33--x4-------------------------------------------------------|
A|--33--55--00--33-----------------------------------------------------------|
E|------33------11-----------------------------------------------------------|
   so close to me...

e|---------------------------------------------------------------------------|
B|---------------------|.......pm.......|------------------------------------|
G|-|.pm.|----|.pm.|-----5555-------------------------------------------------|
D|--55555555--33333333--5555--5555--33333333---------------------------------|
A|--55555555--33333333--3333--5555--33333333---------------------------------|
E|--33333333--11111111--------3333--11111111---------------------------------|
   shedding tears over these bottles...

e|---------------------------------------------------------------------------|
B|---------------------------------------------------------------------------|
G|-|......pm......|----|.......pm.......|------------------------------------|
D|--55555555--33333333--5555555555555555--3333333355555555-------------------|
A|--55555555--33333333--5555555555555555--3333333355555555-------------------|
E|--33333333--11111111--3333333333333333--1111111133333333-------------------|
   of the barrel of a barrell so rotten...

e|---------------------------------------------------------------------------|
B|---------------------------------------------------------------------------|
G|--555555555555------22222222-----------------------------------------------|
D|--5555555555555555--22222222--3~-------------------------------------------|
A|--3333333333335555--00000000--3~-------------------------------------------|
E|--------------3333------------1~-------------------------------------------|
   f**k this, i'm out of bullsh*t...

e|---------------------------------------------------------------------------|
B|---------------------------------------------------------------------------|
G|--55555555------------22222222---------------------------------------------|
D|--55555555--55555555--22222222--33333333-----------------------------------|
A|--33333333--55555555--00000000--33333333-----------------------------------|
E|------------33333333------------11111111-----------------------------------|
   Pass these “f**k you”s around...

e|-----------------------0000000---------------------------------------------|
B|-----------------------0000000---------------------------------------------|
G|--555-555--------------0000000---------------------------------------------|
D|--555-555-777-555-333333333333---x2----------------------------------------|
A|--333-222-777-555-333333333333---------------------------------------------|
E|----------555-333-111111111111---------------------------------------------|
   Tell me why why why...

e|---------------------------------------------------------------------------|
B|---------------------------------------------------------------------------|
G|--55-----------------------------------------------------------------------|
D|--55--55--33--333333----x3-------------------------------------------------|
A|--33--55--33--333333-------------------------------------------------------|
E|------33--11--111111-------------------------------------------------------|
   I should just let it die...

e|---------------------------------------------------------------------------|
B|---------------------------------------------------------------------------|
G|---------------------------------------------------------------------------|
D|--55555555--33333333-------------------------------------------------------|
A|--55555555--33333333-------------------------------------------------------|
E|--33333333--11111111-------------------------------------------------------|
   And I’m tired of waiting for this sh*t to shine...

then repeat the whole lot
the only other bit is this:

          guitar 1                           guitar 2
e|--------------------------------|--0~--3~--0~--------0~--------------------|
B|-|........pm..........|---------|--1~--3~--1~--------1~--------------------|
G|--5555----------------------5~--|--0~--0~--2~--------2~--------------------|
D|--5555--5555--33333333--x3--5~--|--2~--0~--3~---x3---3~--------------------|
A|--3333--5555--33333333------3~--|--3~--2~----------------------------------|
E|--------3333--11111111----------|------3~----------------------------------|
   I am tired of waiting...          I am tired of waiting...


that's pretty much the basics. 
there's loads of other cool sh*t in there, but i'll leave that for someone who can play.

bottoms up!

| /  slide up
| \  slide down
| pm palm mute
| h  hammer-on
| p  pull-off
| ~  let ring
| +  harmonic
| x  Mute note
===============================================================================
            
Hard to play? Try these video lessons and learn fast. | Correct




comments powered by Disqus
↑ Back to top | Tablatures and chords are parodies/interpretations of the original songs. You may use it for private study, scholarship, research or language learning purposes only