» » »

Lawrence Arms, Quincentuple Your Money Bass tabs (ver.1)

Artists:  A B C D E F G H I J K L M N O P Q R S T U V W X Y Z # 

Quincentuple Your Money Bass tabs (ver.1)

Lawrence Arms Tabs
 Rating:
4/5 (4 votes)
Quincentuple Your Money lessons Tabs too difficult? Try these video lessons and learn fast
1
                
Great song, you should be able to figure out where all these parts go without 
much trouble. Have fun. 

G---7-9-7-5-12-11-9-7----7-9-7-5--- 
D-5--------------------5---------5- 
A---------------------------------- 
E---------------------------------- 
Intro 

G----------------------------------------------------------------- 
D----------------------------------------------------------------- 
A-----------------3-3-3-3-3-3-3-3---------5-5-5-5-3-3-3-3-3-3-3-3- 
E-3-3-3-3-3-3-3-3-----------------3-3-3-3------------------------- 
"There's a letter..." etc. 

G--------------------------------- G--------------------------------- 
D--------------------------------- D--------------------------------- 
A---------5-5-5-5-7-7-7-7-3-3-3-3- A---------5-5-5-5-3-3-3-3-3-3-3-3- 
E-3-3-3-3------------------------- E-3-3-3-3------------------------- 
"It's the pride and the pain..." etc. Play this last time in 1st verse 

G--------------------------------- G--------------------------------- 
D--------------------------------- D--------------------------------- 
A-7-7-7-7-5-5-5-5-3-3-3-3-3-3-3-3- A-3-3-3-3-3-3-3-3-5-5-5-5-5-5-5-5- 
E--------------------------------- E--------------------------------- 

"But she doesn't get the jokes..." "But for some reason she laughs..." 

G------------------------------- 
D---0-2-0---5-4-2-0---0-2-0----- 
A---------3-----------------3--- 
E-3-----------------3---------3- 
Play this after first verse 

G-----------------------7--------7--------------------------------------- 
D-----7--------7----5-5---5--5-5---5------7--------7--------5--------5--- 
A-5-5---5--5-5---5--------------------5-5---5--5-5---5--3-3---3--3-3---3- 
E------------------------------------------------------------------------ 
Play this twice after second verse (the part with no vocals) 

G------------- G------------------------------------------------- 
D------------- D------------------------------------------------- 
A-----5-5-3-3- A---------5-5-5-5-3-3-3-3-3-3-3-3-5-5-5-5-5-5-5-5- 
E-3-3--------- E-3-3-3-3----------------------------------------- 
"There's a park..." "...but it'd kill me to know that it's changed..." 

G----------------------------------------------------------------- 
D----------------------------------------------------------------- 
A-----------------3-3-3-3-3-3-3-3---------5-5-5-5-3-3-3-3-3-3-3-3- 
E-3-3-3-3-3-3-3-3-----------------3-3-3-3------------------------- 
"There's these kids who have dreams...." 

G------------------------- G--------------------------------- 
D------------------------- D--------------------------------- 
A-------3-3-3-------5-5-5- A-3-3-3-3-3-3-3-3-5-5-5-5-5-5-5-5- 
E-3-3-3-------3-3-3------- E--------------------------------- 
"What's left in this smoke..." "....and losers like me....." 

G----------------- 
D----------------- 
A-----5-5-7-7-3-3- 
E-3-3------------- 
"Tonight let's go..." 

G--------------------------------------------------------------- 
D--------------------------------------------------------------- 
A---------5-5-5-5-3-3-3-3-5-3-2-0---------5-5-5-5-3-3-3-3-3-3-3- (cont) 
E-3-3-3-3-------------------------3-3-3-3----------------------- 
"We'll stop at the bar and pass out on the floor..." 

G------------------------------------------------------- 
D------------------------------------------------------- 
A-(continued from above)3-3-3-3-3-3-3-3-5-5-5-5-5-5-5-5- 
E------------------------------------------------------- 
"and we'll replay these days again" 

G-------------------------------------------------- 
D-------------------------------------------------- 
A---------5-5-5-5---------3-3-3-3---------5-5-5-5-- 
E-3-3-3-3---------3-3-3-3---------3-3-3-3---------3 
last part, play this under the guitar 

and you're done
            
Submit corrections

comments powered by Disqus
↑ Back to top | Lawrence Arms Bass for Quincentuple Your Money. Lyrics for acoustic guitar and electric guitar. 1 Tablatures and chords are parodies/interpretations of the original songs. You may use it for private study, scholarship, research or language learning purposes only