» » »

Presenting: The Dancing Machine Bass tabs (ver.1)

Artists:  A B C D E F G H I J K L M N O P Q R S T U V W X Y Z # 

Presenting: The Dancing Machine Bass tabs (ver.1)

Lawrence Arms
Rating:
0/5 (0 votes)

Hard to play? Try these video lessons and learn fast.
                
...brendan's bass is really hard to hear in this song, but i
think this tab is pretty darn close...


G---------------------------------|
D---------------------------------|
A-----------------2-2-2-2---------|
E-4-4-4-4-0-0-0-0---------2-2-2-2-|
first verse

G---------------------------------|
D---------------------------------|
A---------------------------------|
E-4-4-4-4-2-2-2-2-0-0-0-0-0-0-0-0-|
chorus/palm muted part

G---------------------------------|
D---------------------------------|
A-2-2-2-2-------------------------|
E---------2-2-2-2-0-0-0-0-0-0-0-0-|
second verse/interlude

G---------------------------------------------------------------------------------|
D---------------------------------------------------------------------------------|
A---------------------------------2-2-2-2-2-2-2-2---------------------------------|
E-4-4-4-4-4-4-4-4-0-0-0-0-0-0-0-0-----------------2-2-2-2-2-2-2-2-0-0-0-0-0-0-0-0-|
quiet part.."*** what we say and all that we do..."

G---------------------------------|
D---------------------------------|
A-2-2-2-2-------------------------|
E---------2-2-2-2-4-4-4-4-4-4-4-4-|
outro, i think it ends on E-2

again, the bass is really dull and hard to hear, hopefully
this tab helps out anyone who's trying to play this song
            
Hard to play? Try these video lessons and learn fast. | Correct




comments powered by Disqus
↑ Back to top | Tablatures and chords are parodies/interpretations of the original songs. You may use it for private study, scholarship, research or language learning purposes only