» » »

Old Dogs Never Die Tabs (ver.1)

Artists:  A B C D E F G H I J K L M N O P Q R S T U V W X Y Z # 

Old Dogs Never Die Tabs (ver.1)

Lawrence Arms
Rating:
0/5 (0 votes)

Hard to play? Try these video lessons and learn fast.
                The Lawrence Arms - Old Dogs Never Die


                     4x
E|------------------|---------------------------|
B|-3300330033003300-|---------------------------|
G|-0000000000000000-|-----------777777775555555-|
D|-2222222222222222-|-2222255555555555555555555-|
A|-2222222222222222-|-2222255555555555553333333-|
E|-0000000000000000-|-0000033333----------------|

E|--------------------------------------0-----|
B|--------------------------------------2---3-|
G|---0-777555-----777555---0-777555---0-3--00-|
D|-222-777555-575^777555-222-777555-222-0-2-2-|
A|-222-555333-----555333-222-555333-222---3---|
E|-000-------------------000--------000-------|
   .. 

E|------------------------------2-5\-----|
B|---------0--------1-0---0-0---3-3\---3-|
G|---------0---0---0------0-0---2-2---00-|
D|-2222222-0-04---2------2--0-0-0-0--2-2-|
A|-2222222-x------3-----2---x-0-0----3---|
E|-0000000-3------------0---3------------|

2x
E|---------------------------|
B|---------------------------|
G|-----------777777775555555-|
D|-2222255555555555555555555-|
A|-2222255555555555553333333-|
E|-0000033333----------------|

E|--------------------------------------0-----|
B|--------------------------------------2---3-|
G|---0-777555-----777555---0-777555---0-3--00-|
D|-222-777555-575^777555-222-777555-222-0-2-2-|
A|-222-555333-----555333-222-555333-222---3---|
E|-000-------------------000--------000-------|
   .. 

E|--------------------------------------------------------------------|
B|------------------------------------------------------------1110003-|
G|-99-999999-977975-555555-771112-99-999999-977975-5555555555-0000000-|
D|-xx-xxxxxx-xxxxxx-xxxxxx-xx-x-x-xx-xxxxxx-xxxxxx-xxxxxxxxxx---------|
A|-77-777777-755753-333333-55-910-77-777777-755753-3333333333---------|
E|--------------------------------------------------------------------|

E|--------------------------------------------------------------------------------------------------------------|
B|--------------------------------------------------------------------------------------------------------------|
G|-------------55555577777777------999999995555555555555-------------55555577777777-999997777777775555555555555-|
D|-55555555555555555577777777-55555999999995555555555555-55555555555555555577777777-999997777777775555555555555-|
A|-55555555555533333355555555-55555777777773333333333333-55555555555533333355555555-777775555555553333333333333-|
E|-333333333333---------------33333----------------------333333333333-------------------------------------------|

E|--------------------------------|
B|--------------------------------|
G|------777777775555555555555-----|
D|-55555777777775555555555555-55\-|
A|-55555555555553333333333333-55\-|
E|-33333----------------------33\-|
            
Hard to play? Try these video lessons and learn fast. | Correct




comments powered by Disqus
↑ Back to top | Tablatures and chords are parodies/interpretations of the original songs. You may use it for private study, scholarship, research or language learning purposes only