» » »

Lawrence Arms, Nebraska Bass tabs (ver.1)

Artists:  A B C D E F G H I J K L M N O P Q R S T U V W X Y Z # 

Nebraska Bass tabs (ver.1)

Lawrence Arms Tabs
Rating:
5/5 (1 vote)
Nebraska lessons Tabs too difficult? Try these video lessons and learn fast
                ----------------------------------------------------------------------------
			     Nebraska - The Lawrence Arms
----------------------------------------------------------------------------


Tuning: standard tuning / E, A, D, G

1x
G----------------------------------------------|
D----------------------------------------------|
A-22222-5-2--------------------------------5-2-|
E-----------5-333333333-555555555-33333333----5|

1x
G-----------------------------------------------------|
D-----------------------------------------------------|
A-22222-5-2-------------------------------------------|
E-----------5-333333333-555555555-33333333----33333333|


2x
G---------------------------------------------------|
D---------------------------------------------------|
A-5555555555555-----------------------------22-55---|
E---------------5555555555555-3333333333333-------55|

2x
G---------------------------|
D---------------------------|
A-22222-5-2------------5-2--|
E-----------5-33333333-----5|

1x
G--------------------------------------------------|
D--------------------------------------------------|
A-22222-5-2----------------------------------------|
E-----------5-33333333-555555555-33333333-555555555|

2x
G---4-4----------|
D----4-4---------|
A-2--------5-7-5-|
E---------3------|

1x
G-----------------------------------------|
D------------------------------------77777|
A-----------2222222222----------55555-----|
E-5555555555----------3333333333----------|

2x
G------------------------|
D---454---454---454---454|
A-------------22---------|
E-33----55----------55---|

1x
G---------------------------------------------------|
D---------------------------------------------------|
A-222222222-55--------------------------------------|
E----------------55-333333333-55555555-33333-5555555|

2x
G-----------------------------|
D-----------------------------|
A-22222222--------------------|
E---------555555555-3333333333|

Play this very slowly
G----12----14-16----14-12--14-12|
D-12----12-------12-------------|
A-------------------------------|
E-------------------------------|

4x
G-----------------------------------------------|
D-----------------------------------------------|
A-555555555-------------22222222222-------------|
E-----------55555555555-------------333333333333|

1x
G--------|
D--------|
A-22-----|
E----55-3|

1x
G--------------------------------------------------------------|
D---------14-12----------12----------14-12-----------12---14-12|
A-12-14-12-------12-14-12----12-14-12-------12-14-12-----------|
E--------------------------------------------------------------|

1x
G---------------------|
D--------------------7|
A-2-2----------------5|
E----5-5--3-33-3333~--|

play this down... have fun
            

comments powered by Disqus
↑ Back to top | Lawrence Arms Bass for Nebraska. Lyrics for acoustic guitar and electric guitar. Tablatures and chords are parodies/interpretations of the original songs. You may use it for private study, scholarship, research or language learning purposes only