>
 >
Lose Your Illusion

Lose Your Illusion Guitar Tabs

Lawrence Arms - Lose Your Illusion chords, tabs, tablatures, lyrics

Guitar lessons | Add/correct | Request | Top 50 tabs Artists:  A B C D E F G H I J K L M N O P Q R S T U V W X Y Z 0-9

Lose Your Illusion Guitar Tabs – Lawrence Arms

CD, Sheet music, Poster

Do you like Lose Your Illusion? Share with your friends now
Tabs
The Lawrence Arms - Lose Your Illusion 1


2x
E|-0000000--------------|
B|-0000000---5555555----|
G|-11111114446666666444-|
D|-22222224446666666444-|
A|-22222222224444444222-|
E|-0000000--------------|

2x
E|-----------------------0000000--------------------|
B|-----------------------0000000-----5555555--------|
G|-66xxx664422xxx2224444-11111114444466666662222222-|
D|-66xxx664422xxx2224444-22222224444466666662222222-|
A|-44xxx442200xxx0002222-22222222222244444440000000-|
E|-----------------------0000000--------------------|

2x
E|----------------00000000000-|
B|-555555555------00000000000-|
G|-66666666644444422222222222-|
D|-66666666644444422222222222-|
A|-44444444422222200000000000-|
E|----------------------------|

E|------------------------------------------------------------------------------------------------------------00000000-|
B|------------------------------------------------------------------------------------------------------------22200000-|
G|-9999999444444446666666622222222-99999999444444442222222222-6-4--99999994444444466666666222222-999999444444-22222222-|
D|-9999999444444446666666622222222-99999999444444442222222222-6-4--99999994444444466666666222222-999999444444-22222222-|
A|-7777777222222224444444400000000-77777777222222220000000000-4-2--77777772222222244444444000000-777777222222-00000000-|
E|-0---------------------------------------------------------------0---------------------------------------------------|
    .............................. ..........................       ..................... .. ..  .. .. .. .. 

E|------------------4-4--------------------4-4------|
B|-4h5-4h5-4h5-5---7---4h5p4--4h5-4h5-4---7---4h5p4-|
G|--------------4-4--------------------4-4----------|
D|--------------------------------------------------|
A|--------------------------------------------------|
E|--------------------------------------------------|

2x
E|-----------------------0000000--------------------|
B|-----------------------0000000-----5555555--------|
G|-66xxx664422xxx2224444-11111114444466666662222222-|
D|-66xxx664422xxx2224444-22222224444466666662222222-|
A|-44xxx442200xxx0002222-22222222222244444440000000-|
E|-----------------------0000000--------------------|

2x
E|----------------00000000000-|
B|-555555555------00000000000-|
G|-66666666644444422222222222-|
D|-66666666644444422222222222-|
A|-44444444422222200000000000-|
E|----------------------------|

E|-0~---------------------------------------------------------------------------------------------------------44444444-|
B|-0~---------------------------------------------------------------------------------------------------------55555555-|
G|-1111111444444446666666622222222-99999999444444442222222222-6-4--99999994444444466666666222222-999999444444-66666666-|
D|-2222222444444446666666622222222-99999999444444442222222222-6-4--99999994444444466666666222222-999999444444-66666666-|
A|-2222222222222224444444400000000-77777777222222220000000000-4-2--77777772222222244444444000000-777777222222-44444444-|
E|-0000000---------------------------------------------------------0---------------------------------------------------|
    .............................. ..........................       ..................... .. ..  .. .. .. .. 

  4x                         3x
E|--------------------------|-0000044444--------------|-00000-----4444444444-|
B|--------------------------|-0000055555--------------|-00000-----5555555555-|
G|-222222226666666644444444-|-11111666664444422222222-|-11111444446666666666-|
D|-222222226666666644444444-|-22222666664444422222222-|-22222444446666666666-|
A|-000000004444444422222222-|-22222444442222200000000-|-22222222224444444444-|
E|--------------------------|-00000-------------------|-00000----------------|

E|-------------------------------------------------------------------------------------------------------------------|
B|-------------------------------------------------------------------------------------------------------------------|
G|-11-131313131313-11-131313119999999-6666644444444444444-11-131313131313-11-131313-1613131313139999988888-8-6-444-4-|
D|--x--x-x-x-x-x-x--x--x-x-x-xxxxxxxx-xxxxxxxxxx222222222--x--x-x-x-x-x-x--x--x-x-x--x-x-x-x-x-x99999xxxxx-x-x-xxx-x-|
A|--9-111111111111--9-111111-97777777-4444422222000000000--9-111111111111--9-111111-1411111111117777766666-6-4-222-2-|
E|-----------------------------------------------------------------------------------------------------------------0-|





Comments


Popular Lawrence Arms tabs & chords
Drunk Motuh Kitchen Smile Bass Tabs
Jumping The Shark Bass Tabs
Presenting: The Dancing Machine Bass Tabs
The Disaster March 1 Bass Tabs
Tuenstyles Bass Tabs
Demons 1 Chords
Old Mexico Way Chords
The First Eviction Notice Tabs
Old Mexico Way Ukulele
The Rambling Boys Of Pleasure Ukulele


Song lyrics



↑ Back to top | Tablatures and chords are parodies/interpretations of the original songs. You may use it for private study, scholarship, research or language learning purposes only
© 2014 AZChords.com Contact us | Privacy policy | DMCA | Add/correct tabs | Request tabs | Top 50 tabs