>
 >
Like A Record Player

Like A Record Player Guitar Tabs

Lawrence Arms - Like A Record Player chords, tabs, tablatures, lyrics

Guitar lessons | Add/correct | Request | Top 50 tabs Artists:  A B C D E F G H I J K L M N O P Q R S T U V W X Y Z 0-9

Like A Record Player Guitar Tabs – Lawrence Arms

CD, Sheet music, Poster

Do you like Like A Record Player? Share with your friends now
Tabs
The Lawrence Arms - Like A Record Player


E|------------------------------------------------------------|
B|------------------------------------------------------------|
G|-55555555------------------------55555555-------------------|
D|-5555555555555555555555553333333-555555555555555555555555-3-|
A|-3333333355555555555555553333333-333333335555555555555555-3-|
E|---------33333333333333331111111---------3333333333333333-1-|
   ............................... ........................

2x
E|--------------------------------------------|
B|--------------------------------------------|
G|-1212121212121212-7777777777777777-55555555-|
D|--x-x-x-x-x-x-x-x-xxxxxxxxxxxxxxxx-xxxxxxxx-|
A|-1010101010101010-5555555555555555-33333333-|
E|--------------------------------------------|

E|---------|-0000000-----------------------0000000---------------------------|
B|-333333--|-1111111-----------------------1111111---------------------------|
G|-222222--|-2222222--------555------------2222222--------55555555-----------|
D|-0000003-|-22222223333333355555533333333-22222223333333355555555555555555\-|
A|-0000003-|-00000003333333333355533333333-00000003333333333333333555555555\-|
E|-------1-|--------11111111---33311111111--------11111111--------333333333\-|

E|-----------------------------------------------------------------|
B|-------------------------------1010---10--------1313^------------|
G|-555222-------555222--------7h9----7h9---7h9-7--1212^-7h9--------|
D|-555222555333-555222555333--------------------10---------10-12---|
A|-333000555333-333000555333------------------------------------10-|
E|-------333111-------333111---------------------------------------|
                .. .. 

  2x
E|---------------------------------|-------------------------------------------------------|
B|---------------------------------|-----------------------------------------------1-0-1-1-|
G|-55555555---------------5555-----|----------------55554444222--------------------0-0-2-2-|
D|-5555555555555555333333355555555-|-333333-5555555-555555552223333-333333-5555555-2-2-2-3-|
A|-3333333355555555333333333335555-|-333333-5555555-333322220003333-333333-5555555-3-3-0-3-|
E|---------333333331111111----3333-|-111111-3333333------------1111-111111-3333333---------|
                                      .....  .                       ..... ......

E|-------------------------------------------|
B|-------------------------------------------|
G|-44444444-22222222-44444444-22222222-5-----|
D|-55555555-33333333-55555555-33333333-5-5-3-|
A|-------------------------------------3-5-3-|
E|---------------------------------------3-1-|
   ........ ........ ........ ........

E|-0000000-----------------------0000000-----------------------------------------------------|
B|-1111111-----------------------1111111-----------------------------------------------------|
G|-2222222--------555------------2222222--------55555555-----------555222-------555222-------|
D|-22222223333333355555533333333-22222223333333355555555555555555\-555222555333-555222555333-|
A|-00000003333333333355533333333-00000003333333333333333555555555\-333000555333-333000555333-|
E|--------11111111---33311111111--------11111111--------333333333\-------333111-------333111-|

E|---------------------------------------|
B|---------------------------------------|
G|-555-777-77/9-75--1412109-7-9-7-5-7-5\-|
D|-555-xxx-xx-x-xx---x-x-xx-x-x-x-x-x-5\-|
A|-333-555-55/7-53--1210-87-5/7-5-3-5-3\-|
E|---------------------------------------|





Comments


Popular Lawrence Arms tabs & chords
Devils Takin Names Bass Tabs
On With The Show Bass Tabs
The Raw & Searing Flesh Bass Tabs
Criminal Chords
Warped Summer Extravaganza Chords
Brickwall Views Tabs
Cut It Up Tabs
Devils Takin Names Tabs
Them Angels Been Talkin Ukulele
Theres No Place Like A Strangers Floor Ukulele


Song lyrics



↑ Back to top | Tablatures and chords are parodies/interpretations of the original songs. You may use it for private study, scholarship, research or language learning purposes only
© 2014 AZChords.com Contact us | Privacy policy | DMCA | Add/correct tabs | Request tabs | Top 50 tabs