» » »

Light Breathing (Me And Martha Plimpton In A Fancy Elevator) Tabs (ver.1)

Artists:  A B C D E F G H I J K L M N O P Q R S T U V W X Y Z # 

Light Breathing (Me And Martha Plimpton In A Fancy Elevator) Tabs (ver.1)

Lawrence Arms
Rating:
0/5 (0 votes)

Tabs too difficult? Try these video lessons and learn fast.
                
Band:           The Lawrence Arms

ok this is the basic tab for light breathing in MOSTLY the correct order, all
the bits are there but as any larry fan knows Chris has a habbit of throwing
in bits here, there and everywhere so as i said.. this is just the BASIC chords.
just improvise as you go.

~ = let ring
. = palm mute
/ = slide

intro is played clean
-----------------------------------------------------------------------------|
------------------4-5-5-5-4--------------------------------------------------|
-4~-4----4---4-4~-----------4------------------------------------------------|
-6~---6~---6---6~------------------------------------------------------------|
-7~------------7~------------------------------------------------------------|
-----------------------------------------------------------------------------|


-----------------------------------------------------------------------------|
-----------------------------------------------------------------------------|
----4~-6~-4~-----------------------------------------------------------------|
-2~-4~-6~-4~-----------------------------------------------------------------|
-2~-2~-4~-2~-----------------------------------------------------------------|
-0~--------------------------------------------------------------------------|


-----------------------------------------------------------------------------|
-----------------------------------------------------------------------------|
----------------------------44444444-----------------------------------------|
-66666666-77777777-22222222-44444444-----------------------------------------|
-66666666-77777777-22222222-22222222-----------------------------------------|
-44444444-55555555-00000000--------------------------------------------------|
 ........ ........ ........ ........

-----------------------------------------------------------------------------|
-----------------------------------------------------------------------------|
----------44444444-66666666-44444444-----------------------------------------|
-22222222-44444444-66666666-44444444-----------------------------------------|
-22222222-22222222-44444444-22222222-----------------------------------------|
-00000000--------------------------------------------------------------------|


-----------------------------------------------------------------------------|
-----------------------------------------------------------------------------|
----------------------------44444444-----------------------------------------|
-66666666-77777777-22222222-44444444-----------------------------------------|
-66666666-77777777-22222222-22222222-----------------------------------------|
-44444444-55555555-00000000--------------------------------------------------|
 ........ ........ ........ ........

-----------------------------------------------------------------------------|
-----------------------------------------------------------------------------|
-6-----4-----6----------4---------4/6\4--------------------------------------|
-6-x16-4-x16-6-x16-2----4-x8-7-----------------------------------------------|
-4-----2-----4-----2-x8-2----7-x6--------------------------------------------|
-------------------0---------5-----------------------------------------------|


-----------------------------------------------------------------------------|
-----------------------------------------------------------------------------|
------4----6----4-------------------4----9~----------------4-----------------|
-2----4-x8-6-x8-4-x8-6----7----2----4-x8-9~-6----7----2----4-x8--------------|
-2-x8-2----4----2----6-x8-7-x8-2-x8-2----7~-6-x8-7-x8-2-x8-2-----------------|
-0-------------------4----5----0------------4----5----0----------------------|
 .    .    .    .    .    .    .    .       .    .    .    .

-----------------------------------------------------------------------------|
-----------------------------------------------------------------------------|
-6-----4-----6----------4----------------------------------------------------|
-6-x16-4-x16-6-x16-2----4-x8-7-----------------------------------------------|
-4-----2-----4-----2-x8-2----7-x16-------------------------------------------|
-------------------0---------5-----------------------------------------------|


-----------------------------------------------------------------------------|
-----------------------------------------------------------------------------|
-----------------------------------------------------------------------------|
-6----7----2-----------------------------------------------------------------|
-6-x8-7-x8-2-x16-------------------------------------------------------------|
-4----5----0-----------------------------------------------------------------|

ok so the tabs a mess but it was an annoying song to tab..
..also the Chicago punk scene? pahhhhhhh
            
Tabs too difficult? Try these video lessons and learn fast.


comments powered by Disqus
↑ Back to top | Tablatures and chords are parodies/interpretations of the original songs. You may use it for private study, scholarship, research or language learning purposes only