» » »

Lawrence Arms, I'll Take What's In The Box, Monty Bass tabs (ver.1)

Artists:  A B C D E F G H I J K L M N O P Q R S T U V W X Y Z # 

I'll Take What's In The Box, Monty Bass tabs (ver.1)

Lawrence Arms Tabs
Rating:
0/5 (0 votes)
I'll Take What's In The Box, Monty lessons Tabs too difficult? Try these video lessons and learn fast
                I’LL TAKE WHAT'S IN THE BOX MONTY by The Lawrence Arms
:
# intro # 
G-----------(x3)-----------|------------------0---0---0-----|
D--------------------------|--------------------------------|
A-----------33--33--3--3---|-----------33---3---3---3---3---|
E---33--00-----------------|---33--00-----------------------|
:
# verse-1 #  *=play x4
G---------------------------------------------------------->|
D-----------------*--*--*--*---------------*--*--*--------->|
A----*--*--*--*--3--3--3--3---*--*--*--*--3--3--3---/5-3--->|
E---3--3--3--3---------------3--3--3--3-------------------->|
:
G------------------------------------------------------->|
D------------------------------------*--*--*--*--*--*--->|
A------------33----------33---*--*--5--5--3--3--3--3---->|
E---33-22-00----33-22-00-----3--3----------------------->|
:
G------------------------------------------------------->|
D-----------------*--*--*--*---------------*--*--*--*--->|
A----*--*--*--*--3--3--3--3---*--*--*--*--3--3--3--3---->|
E---3--3--3--3---------------3--3--3--3----------------->|
:
G-----------------------------------------------0----0----0---|
D------------------------------------*--*---------------------|
A------------33----------33---*--*--5--5----333---33---33-----|
E---33-22-00----33-22-00-----3--3-----------------------------|
:
# chorus-1 #  *=play x3
G--------(x4)--------|-------(x3)-------|--------------------------|
D--------*-------*---|-----------*--*---|--------------------------|
A----*--5----*--3----|----*--*--3--3----|-----------33--33--3--3---|
E---3-------0--------|---3--0-----------|---33--00-----------------|
:
# verse-2 #  *=play x4
G---------------------------------------------------------------------->|
D---------------------------------------------------------------------->|
A----*--*--*--*---3-3-3-3--333-/5-3-----*--*--*--*---3-3-3-3--333--3--->|
E---3--3--3--3-------------------------3--3--3--3---------------------->|
:
G-----------------------------------------------0----0----0---|
D------------------------------------*--*---------------------|
A------------33----------33---*--*--5--5----333---33---33-----|
E---33-22-00----33-22-00-----3--3-----------------------------|
:
# chorus-2 #  *=play x3
G----------(x3)---------|--------------------|-------(x4)-------|
D-----------------------|-----------22-------|-----------*--*---|
A--------55--------33---|-------55------33---|----*--*--3--3----|
E---33--------00--------|---33---------------|---3--0-----------|
:
# bridge #
G---------------0----:------------:--------------0---0--:----------->|
D------------------------------------------------------------------->|
A---------33--3---3-----------33-----------33--3---3---------------->|
E---33-00---------------33-00--------33-00-----------------33--00--->|
:
G-------0---0---0--->|
D------------------->|
A---33----3---3----->|
E------------------->|
:
# I’m dragging... #                           # And I’m dragging... #
G------------0-------------------------------:------------------------->|
D---------------------------------------------------------------------->|
A----------3---3-------5--3-3-3--3333--333--------------0-3-3-3--333--->|
E---3--33-----------0---------------------------33--33----------------->|
                           # So smile... #
G---------2------0---0----:---------------------0----------->|
D----------------------------------------------------------->|
A------5----5--3---3---3------------------3--33---33-3-33--->|
E---0------------------------33--3--33-3-------------------->|
:
# So smile... #                 # In the morning... #
G-------------------0----------:----------2----0----------->|
D---------------------------------------------------------->|
A----------------33---33--333----------5-----3----333--3--->|
E---33--3--33-3-------------------0-0---------------------->|
:
# I don’t know... #           # In the morning... #
G----------2-------0----0----:---------2------------------->|
D---------------------------------------------------------->|
A--------5---5---3----3---3----------5---5--33--3333--33--->|
E---0-0-------------------------0-0------------------------>|
:
# I don’t know... #
G----------------0-----------------|
D---2------------------------------|
A---------55--33---3---333--3333---|
E------0---------------------------|
:
# outro #  *=play x4
G-------------------------------------------------------------|
D-----------*--*------*---------------*--*------*-------------|
A----*--*--3--3---*--5---*--*--*--*--3--3---*--5---*---5--3---|
E---3--0---------3------0--0--3--0---------3------0-----------|
:
            

comments powered by Disqus
↑ Back to top | Lawrence Arms Bass for I'll Take What's In The Box, Monty. Lyrics for acoustic guitar and electric guitar. Tablatures and chords are parodies/interpretations of the original songs. You may use it for private study, scholarship, research or language learning purposes only