» » »

Lawrence Arms, Great Lakes Great Escapes Tabs (ver.1)

Artists:  A B C D E F G H I J K L M N O P Q R S T U V W X Y Z # 

Great Lakes Great Escapes Tabs (ver.1)

Lawrence Arms Tabs
 Rating:
4.4/5 (7 votes)
Great Lakes Great Escapes lessons Tabs too difficult? Try these video lessons and learn fast
                The Lawrence Arms - great lakes / great escapes


standard tuning

# = play a few times (punk rythm)
* = you have to play this some more times but there is another rythm
    just listen !

E|---0---0---0---0-|
B|----1---1---1---1|
G|-----------------|
D|-22--22--33--33--|
A|-00--00--00--00--|
E|-----------------|
   # # # # #
E|------------------------------|
B|------------------------------|
G|-2---2------99-1010-12-10-10-9|
D|-2-3-2-5-3--xx-x-x---x--x--x-x|
A|-0-3-0-5-3--77-8-8--10--8--8-7|
E|---1---3-1--------------------|
   # # # # # # # # # # # # #
E|---------------------------|
B|---------------------------|
G|-5-----5-----2---5---2-----|
D|-5-5-3-5-5-3-2-5-5-3-2-5-3-|
A|-3-5-3-3-5-3-0-5-3-3-0-5-3-|
E|---3-1---3-1---3---1---3-1-|

E|--------0---------0--------------0-----------------|
B|--3p10h1-1-0h1-1---311-31--3p10h1-1-0-00-0h1p0-0h1-|
G|--------------------------------------------------0|
D|-2~--------------3~-------2~-----------------------|
A|-0~--------------0~-------0~-----------------------|
E|---------------------------------------------------|

E|-0-xxxxxxx-0-xxxxxxxx|
B|-1-xxxxxxx-1-xxxxxxxx|
G|-2-xxxxxxx-2-xxxxxxxx|
D|-2-xxxxxxx-3-xxxxxxxx|
A|-0---------0---------|
E|---------------------|
   # # # # #   # # # # # # # # # # # # #
E|--------------------------------------|
B|--------------------------------------|
G|-2---2-------5-----5-----2---5---2----|
D|-2-3-2-5-3---5-5-3-5-5-3-2-5-5-3-2-5-3|
A|-0-3-0-5-3---3-5-3-3-5-3-0-5-3-3-0-5-3|
E|---1---3-1-----3-1---3-1---3---1---3-1|
   # #    # # # # # # # # #      # # # # # # # # # # # # #
E|-3-5-3----------3---------------------------------------|
B|-x-5-x----------x---------------------------------------|
G|-2-5-2----5-----2---5----------5-----5-----2---5---2----|
D|-2-3-2--3-5-5-3-2-3-5-5-3-5~5--5-5-3-5-5-3-2-5-5-3-2-5-3|
A|-0-3-0--3-3-5-3-0-3-3-5-3-5~5--3-5-3-3-5-3-0-5-3-3-0-5-3|
E|--------1---3-1---1---3-1-3~3----3-1---3-1---3---1---3-1|

E|---3--3-3h5-3-------------|
B|--5--5---------5--65---3--|
G|-5-----4------5-------3-3-|
D|-------------7---5---5----|
A|--------------------------|
E|--------------------------|
                 * # # # # # # # # # # # # #  #
E|---3-0-1---3-0------------------------------3--3/|
B|-5-5-1-1-5-5-1------------------------------1--1/|
G|-5-4-2-2-5-4-2---2---5---2---5---2---5------2--2/|
D|-x-5-2-3-x-5-2-5-2-3-5-5-2-3-5-5-2-3-5-5-3--2--2/|
A|-3-3-0-0-3-3-0-5-0-3-3-5-0-3-3-5-0-3-3-5-3--0--0-|
E|---------------3---1---3---1---3---1---3-1-------|

great song 
tab should be right !
            
Submit corrections

comments powered by Disqus
↑ Back to top | Lawrence Arms Tabs for Great Lakes Great Escapes. Lyrics for acoustic guitar and electric guitar. Tablatures and chords are parodies/interpretations of the original songs. You may use it for private study, scholarship, research or language learning purposes only