» » »

Fireflies Tabs (ver.1)

Artists:  A B C D E F G H I J K L M N O P Q R S T U V W X Y Z # 

Fireflies Tabs (ver.1)

Lawrence Arms
Rating:
5/5 (2 votes)

Hard to play? Try these video lessons and learn fast.
                The Lawrence Arms - Fireflies


INTRO
  2x              THEN THIS
E|---------------|---------------------------------3------|
B|-----0---------|----0-----0----0-30-0-0----------x------|
G|----0-00---0--0|---0-00-00-00-0-0----0-0-0-------2------|
D|---2~----------|--2~---------------------3-------2------|
A|--0~------5~-3-|-0~----------------------3-(14x)-0-(14x)|
E|---------3~-1--|-------------3~----------1--------------|

VERSE
E|-------------------------------------|-----------------------------------------------|
B|-------------------------------------|-----------------------------------------------|
G|--------------------22222222-55555555|---0--0--0---0--0--0----------22222222-22222222|
D|--33333333-55555555-22222222-55555555|---------------------55555555-22222222-22222222|
A|--33333333-55555555-00000000-33333333|--3--5--7---7--5--3--55555555-00000000-00000000|
E|--11111111-33333333------------------|-1--3--5--8---3--1---33333333------------------|
pm  ........ ........ ........ ........                      ........ ........

LIGHTSLEEPER...
E|--------------------------------------------------------------------|
B|--------------------------------------------------------------------|
G|-------------------------------222222----------------------55--22---|
D|--333333-555555-222-555-333333-222222-555555-333333-333333-5555225~-|
A|--333333-555555-222-555-333333-000000-555555-333333-333333-3355005~-|
E|--111111-333333-000-333-111111--------333333-111111-111111---33--3~-|

VERSE 2
E|-------------------------------------------------------------3-7-3----|
B|-------------------------------------------------------------5-5-5--0-|
G|--------------------22222222-55555555-------------------2222---------0|
D|--33333333-55555555-22222222-55555555-33333333-55555555-2222----------|
A|--33333333-55555555-00000000-33333333-33333333-55555555-0000----------|
E|--11111111-33333333-------------------11111111-33333333---------------|
pm  ........ ........ ........ ........ ........ ........ ....

E|---------------------------|
B|---------------------------|
G|----0--0--0---0--0--0--0--0|
D|---------------------------|
A|---3--5--7---7--5--3--5--7-|
E|--1--3--5--8---3--1--3--5--|

LIGHTSLEEPER...
E|--------------------------------------------------------------------------------|
B|--------------------------------------------------------------------------------|
G|-------------------------------222222----------------------55--22-55xxx4-xxxxxxx|
D|--333333-555555-222-555-333333-222222-555555-333333-333333-555522-55xxx5-xxxxxxx|
A|--333333-555555-222-555-333333-000000-555555-333333-333333-335500-33xxx--xxxxxxx|
E|--111111-333333-000-333-111111--------333333-111111-111111---33-----xxx--xxxxxxx|

CHOKE DOWN THE CLOUDS...
E|--------------------------------------------3333333333---------------------------------------|
B|--------------------------------------------xxxxxxxxxx---------------------------------------|
G|--222222-555555--------55-------------------2222222222-----------------------55555555--------|
D|--222222-555555-333333-55555-33333333333333-2222222222-5555555555-3333333333-5555555555555555|
A|--000000-333333-333333-33555-33333333333333-0000000000-5555555555-3333333333-3333333355555555|
E|----------------111111---333-11111111111111------------3333333333-1111111111---------33333333|

2x
E|----------------------------------------|
B|------00-------00-----------------------|
G|--222---0--------0------2200220022002200|
D|--222------555------333-3333333333333333|
A|--000------555------333-----333333333333|
E|-----------333------111-----111111111111|

2x
E|---------------------------|
B|---------------------------|
G|----0--0--0---0--0--0--0-0-|
D|-------------------------x-|
A|---3--5--7---7--5--3--5--7-|
E|--1--3--5--8---3--1--3---5-|
                                                      2x
E|----------------333333-----------------------------|---------------333333|
B|----------------xxxxxx-----------------------------|---------------xxxxxx|
G|----------------222222---------------222222--------|---------------222222|
D|--333333-555555-222222-333333-555555-222222-5555555|-333333-555555-222222|
A|--333333-555555-000000-333333-555555-000000-5555555|-333333-555555-000000|
E|--111111-333333--------111111-333333--------3333333|-111111-333333-------|
                      
                     THIS IS MY EXIT... 2x
E|----003300----00-----------------------------------------|
B|------------11--11---------------------------------------|
G|--22---------------222222222222222222--------------------|
D|----------33-------22222222222222222233333333333333333333|
A|-------------------00000000000000000033333333333333333333|
E|-------------------------------------11111111111111111111|
pm                   ......................................

IT WILL FEEL...
E|------------------------------------------------------------------|
B|------------------------------------------------------------------|
G|--22222222222222--------------------------------------------------|
D|--222222222222225555555555555553333333333333333333333333-333333333|
A|--000000000000005555555555555553333333333333333333333333-333333333|
E|----------------3333333333333331111111111111111111111111-111111111|
pm  ......................................................

THIS ARMS WILL BLEED... 3x
E|----------------------------------------|
B|----------------------------------------|
G|--2222222222----------------------------|
D|--22222222225555555555533333333333333333|
A|--00000000005555555555533333333333333333|
E|------------3333333333311111111111111111|

E|-------------------------------------------------------------------|
B|---------------00-------00------------------------00-------00------|
G|--22-------222---0--------0------220022002200-222---0--------0-----|
D|--22-55-3~-222------555------333-333333333333-222------555------333|
A|--00-55-3~-000------555------333-333333333333-000------555------333|
E|-----33-1~----------333------111-111111111111----------333------111|
            
Hard to play? Try these video lessons and learn fast. | Correct




comments powered by Disqus
↑ Back to top | Tablatures and chords are parodies/interpretations of the original songs. You may use it for private study, scholarship, research or language learning purposes only