» » »

Criminal Chords (ver.1)

Artists:  A B C D E F G H I J K L M N O P Q R S T U V W X Y Z # 

Criminal Chords (ver.1)

Lawrence Arms
Rating:
5/5 (2 votes)

Hard to play? Try these video lessons and learn fast.
                -----------------------------------------------------------------------------
                        Criminal - The Lawrence Arms
-----------------------------------------------------------------------------


think about it. I'm absolutely not sure how right/wrong this is but since I
didn't find any other tab of this song - here's how I play it.


     Em  Em/G  C  Cadd9 Cm7   G  Gadd9  D  Dsus4
e|---0----3----0----0----0----3----5----2----3---|
B|---0----0----1----3----0----0----0----3----3---|
G|---0----0----0----0----0----0----0----2----2---|
D|---2----2----2----2----2----0----0----0----0---|
A|---2----2----3----3----3----2----2-------------|
E|---0----0-------------------3----3-------------|


Em                                 C       Cadd9  Cm7
My anger is a sign of disgust with myself
Em                                      C    Cadd9 Cm7
A stewing serenade i hear the sirens on their way
G       Gadd9   G       D               Dsus4    D        C      Cadd9 Cm7
The chemicals inside of me just kept on swimming through my veins
G    Gadd9      G      D              Dsus4      D      C   Cadd9 Cm7  
Maybe I should make a move and try to leave this all behind


Em                      C    Cadd9 Cm7   
I listen to the absence of noise
Em                                        C     Cadd9 Cm7
Dead summer breeze, I'm inflated with suspicions
G          Gadd9   G    D           Dsus4   D     C  Cadd9 Cm7
Seems I've identified again the criminal of my intent
G      Gadd9 G      D          Dsus4     D    C   Cadd9 Cm7
Imagine exercising that same routine you reinvent

Em         Em/G                 D
I'm just a cold face on the street
                       C     Cadd9 C Cm7
Slow and somber in my patterns
Em       Em/G                   D
I'm just a friend you'll never meet
        Dsus4  D         C     Cadd9 C Cadd9 Cm7
I am the love that never happens
Em               D
My days exist in meaningless ways
C
I need a way to shake this
G   D               C
I'm making lost time famous


e|-0-0-0--0-0-----------0-0-0--0-0------------0-0-0--0-0-----------10-------|
B|-0-0-0--0-0----3p0----1-1-1--1-1------------0-0-0--0-0-----3p0------7-8---|
G|-0-0-0--0-0-2h4---2p0-0-0-0--0-0-----2p0----0-0-0--0-0--2h4---2p0-------7-|
D|-2-2-2----2-----------2-2-2----2--2h5---2p0-2-2-2----2--------------------|
A|-2-2-2----------------3-3-3-----------------2-2-2-------------------------|
E|-0-0-0--------------------------------------0-0-0-------------------------|


G                           C
My heart goes rushing to my head whatever happened to me
G                        C                          Em
Weeks spin forward I'm aware I've been living in reverse
  D           C
I always hesitate
Em       D            C
like the future is engraved
G                              C                                 G
Roots here grow really deep they're networked beneath the city streets
                           C     Cadd9
It's a structured kind of madness

Em D            C
I always turn away
Em   D          C 
back to a safer fate
Em D          C
I always hesitate

Em D C
            
Hard to play? Try these video lessons and learn fast. | Correct




comments powered by Disqus
↑ Back to top | Tablatures and chords are parodies/interpretations of the original songs. You may use it for private study, scholarship, research or language learning purposes only