>
 >
Chicago Is Burning

Chicago Is Burning Guitar Tabs

Lawrence Arms - Chicago Is Burning chords, tabs, tablatures, lyrics

Guitar lessons | Add/correct | Request | Top 50 tabs Artists:  A B C D E F G H I J K L M N O P Q R S T U V W X Y Z 0-9

Chicago Is Burning Guitar Tabs – Lawrence Arms

CD, Sheet music, Poster

Do you like Chicago Is Burning? Share with your friends now
Tabs
Standard Tuning (e,B,G,D,A,E)

Intro Play Twice
Gtr.1(Distorted)                      
e|------------------------------------------------------------------|
B|------------------------------------------------------------------|
G|-6-6-666-9-9-999---------6~66-6-6-6-6-666-9-9-999-----------------|
D|-6-6-666-9-9-999-9-9-999-6~66-6-6-6-6-666-9-9-999-9-9-999-7~77-7-7|
A|-4-4-444-7-7-777-9-9-999-4~44-4-4-4-4-444-7-7-777-9-9-999-7~77-7-7|
E|-----------------7-7-777--------------------------7-7-777-5~55-5-5|
                                                                  
Gtr.2(Distorted)                                                 
e|------------------------------------------------------------------|
B|----------------------10-----10\\---------------------------------|
G|-6-6-666-9-9-999-9/10----10-------6-6-666-/4---2--1----1----------|
D|-6-6-666-9-9-999-----------12-----6-6-666-----------4-----2~~~~---|
A|-4-4-444-7-7-777------------------4-4-444-------------------------|
E|------------------------------------------------------------------|

Part 1(you only reall need a rhythm Gtr. for the intro and solo or you could
have a guitar play the clean part and one play the distorted)

Gtr. 2
e|-2~~~~~4~~~------------------2~~~~~----------------------|
B|-3~~~~~4~~~------------------3~~~~~5P4~------------------|
G|-4~~~~~4~~~------------------4~~~~~----4~----------------|
D|-4~~~~~----9-9-999-7~7-7-77--4~~~~~------9------7--------|
A|-2~~~~~----9-9-999-7~7-7-77--2~~~~~------9-9999-7-777----|
E|-----------7-7-777~5~5-5-55--------------7-7777-5-555----|
                                            |P.m.| | P.m.|
Part 2 play twice
e|--------------------------------------------------------5~--5~--|
B|---------------------9-----9\\--------------------------5~--5~--|
G|-9-9-999---------8/9---9--------9-9-999-----------------6~--6~--|
D|-9-9-999-9~9-999---------11-----9-9-999-9-9-999-7-7-777---77--7-|
A|-7-7-777-9~9-999----------------7-7-777-9-9-999-7-7-777---77--7-|
E|---------7~7-777------------------------7-7-777-5-5-555---55--5-|

solo
Gtr. 1                             
  (hard to tab double digits, so rhythm may look off in places)
                                  x2
e|---------------------------------|------------------------------->
B|---------------------------------|------------------------------->
G|-6-6-666-9-9-999---------6-66-66-|6-6-666-9-9-999-6-6-666-9-9-999>
D|-6-6-666-9-9-999-9-9-999-6-66-66-|6-6-666-9-9-999-6-6-666-9-9-999>
A|-4-4-444-7-7-777-9-9-999-4-44-44-|4-4-444-7-7-777-4-4-444-7-7-777>
E|-----------------7-7-777---------|------------------------------->
                                                               
Gtr.2                             x2                          
e|---------------------------------|--------------------------------->
B|---------------------------------|--------------------------------->
G|---------------------------------|-9~~~~8~~~9~~~~-9-999-13-13-11-11>
D|---------------------------------|----------------x-xxx--x--x--x--x>
A|-7-7-7/-9/11\9-7--7-7-7/11\9-7~~~|7---------------7-777-11-11--9--9>
E|---------------------------------|--------------------------------->

Gtr.1
>-------------------------------------------------
>-------------------------------------------------
>---------6-66-66-6-6-666-9-9-999-----------------
>-9-9-999-6-66-66-6-6-666-9-9-999-9-9-999-7-7-777-
>-9-9-999-4-44-44-4-4-444-7-7-777-9-9-999-7-7-777-
>-7-7-777-------------------------7-7-777-5-5-555-
                                                         
Gtr.2                                                      
>-------------------------------------------------
>-------------------------------------------------
>-9-9-999-9-99-99-9-9-88--4-4-444-4-6-666-4~444444
>-x-x-xxx-x-xx-xx-x-x-xx--x-x-xxx-x-x-xxx-x-xxxxxx
>-7-7-777-7-77-77-7-7-66--2-2-222-2-4-444-2~222222
>-------------------------------------------------

Part 4 (winter beats the summer)
Gtr. 2                          x3
e|-------------------------------|
B|-------------------------------|
G|---------6-66-66-99-999-9-99-99|
D|-9-9-999-6-66-66-99-999-9-99-99|
A|-9-9-999-4-44-44-77-777-7-77-77|
E|-7-7-777-----------------------|

part 5 (like the burning summer evenings)
                    x3   
e|-------------------|----------------
B|-------------------|----------------
G|-9-99--------------|----------------
D|-9-99-999-7--------|-9-9-999-9-99-99
A|-7-77-999-7-777777-|-9-9-999-9-99-99
E|------777-5-555555-|-7-7-777-7-77-77
             |__P.m_|

part 6 (lighten on distortion a bit)
(this town is choking)               ()-unsure about note
e|--------------------------
B|-----------9~~~~----(9)~~~
G|-6~~~~8~~~~9~~~~6~~~~8~~~~
D|-7~~~~9~~~~9~~~~7~~~~9~~~~
A|-7~~~~9~~~~7~~~~7~~~~7~~~~
E|-5~~~~7~~~~-----5~~~~-----

part 7 (clean) (nevermore, nevertheless)
e|--------------------------------------------------------|
B|-------------------------9~-----------9---9-9---9---9~~~|
G|-----9-----9-----9-----9-9~--9----9-----9-9---9-9-9-9~~~|
D|---9---9-----9-----9-----7~----9----9-----7-----7---7~~~|
A|-7-------7-----7-----7-----7----------------------------|
E|--------------------------------------------------------|



key: / slide
     \ slide
     P.m. - palm mute
     ~ ring
     x muted note
     P pull-off





Comments


Popular Lawrence Arms tabs & chords
Are You There, Margaret? It's Me, God Bass Tabs
Devils Takin Names Bass Tabs
Ghost Stories Intro Bass Tabs
Porno And Snuff Films 1 Bass Tabs
The Raw & Searing Flesh Bass Tabs
Chapter 13: The Hero Appears Chords
The Rambling Boys Of Pleasure Chords
Alert The Audience! Tabs
Cut It Up Tabs
Requiem Revisited Tabs


Song lyrics



↑ Back to top | Tablatures and chords are parodies/interpretations of the original songs. You may use it for private study, scholarship, research or language learning purposes only
© 2014 AZChords.com Contact us | Privacy policy | DMCA | Add/correct tabs | Request tabs | Top 50 tabs