» » »

Lawrence Arms, Brick Wall Views Tabs (ver.2)

Artists:  A B C D E F G H I J K L M N O P Q R S T U V W X Y Z # 

Brick Wall Views Tabs (ver.2)

Lawrence Arms Tabs
 Rating:
4/5 (4 votes)
Brick Wall Views lessons Tabs too difficult? Try these video lessons and learn fast
                -------------------------------------------------------------------------------
			     BRICKWALL VIEWS - The Lawrence Arms
-------------------------------------------------------------------------------

Tuning: Standard


I tabbed this so i could play it acoustic
The strumming is easy so ill just post chord progression


VERSE 1              x2
e|--------------------|-----------------------|
B|--------------------|-----------------------|
G|*----9----9----9---*|----6---------4----6---|
D|*----9----9----9---*|----6----2----4----6---|
A|-----7----6----0----|----4----2----2----4---|
E|--------------------|---------0-------------|

                      x2
e|--------------------|----------------------------------|
B|--------------------|----------------------------------|
G|*----9----9----9---*|----6----4----2---------4----6----|
D|*----9----9----9---*|----6----4----2----2----4----6----|
A|-----7----6----0----|----4----2----0----2----2----4----|
E|--------------------|-------------------0--------------|

PRE CHORUS
e|-----------------------------|
B|-----------------------------|
G|----2----4----2----4----2----|
D|----2----4----2----4----2----|
A|----0----2----0----2----0----|
E|-----------------------------|


CHORUS                         x2
e|------------------------------|
B|------------------------------|
G|*---9----9----6----4----2----*|
D|*---9----9----6----4----2----*|
A|----7----0----4----2----0-----|
E|------------------------------|


VERSE 2               x2
e|--------------------|----------------------------------|
B|--------------------|----------------------------------|
G|*----9----9----9---*|----6----4----2---------4----6----|
D|*----9----9----9---*|----6----4----2----2----4----6----|
A|-----7----6----0----|----4----2----0----2----2----4----|
E|--------------------|-------------------0--------------|


PRE CHORUS
e|-----------------------------|
B|-----------------------------|
G|----2----4----2----4----2----|
D|----2----4----2----4----2----|
A|----0----2----0----2----0----|
E|-----------------------------|


CHORUS                         x2
e|------------------------------|
B|------------------------------|
G|*---9----9----6----4----2----*|
D|*---9----9----6----4----2----*|
A|----7----0----4----2----0-----|
E|------------------------------|


VERSE 3                   x2
e|------------------------||--------------------------------|
B|------------------------||--------------------------------|
G|*-------4----6----2----*||-------4----2---------4----6----|
D|*--2----4----6----2----*||--2----4----2----2----4----6----|
A|---2----2----4----0-----||--2----2----0----2----2----4----|
E|---0--------------------||--0--------------0--------------|


BRIDGE
e|---------------------------------------------|
B|---------------------------------------------|
G|--2--4-------2--4-----6--2--4-----6--6----9--|
D|--2--4--2----2--4--2--6--2--4--2--6--6----9--|
A|--0--2--2----0--2--2--4--0--2--2--4--0----0--|
E|--------0----------0-----------0-------------|

e|---------------------------------------------|
B|---------------------------------------------|
G|-----4--6-------4--2-------4--6--6-----4--2--|
D|--2--4--6----2--4--2----2--4--6--6--2--4--2--|
A|--2--2--4----2--2--0----2--2--4--0--2--2--0--|
E|--0----------0----------0-----------0--------|

OUTRO (there are some higher guitar parts here i didnt tab)

                          x4                   x2
e|------------------------||-------------------|
B|------------------------||-------------------|
G|*-------4----6----6----*||*--9----9----9----*|
D|*--2----4----6----6----*||*--9----9----9----*|
A|---2----2----4----0-----||---7----6----0-----|
E|---0--------------------||-------------------|

e|-------------------------------------|
B|-------------------------------------|
G|--9----9----6----4----2----4----9----|
D|--9----9----6----4----2----4----9----|
A|--7----6----4----2----0----2----7----|
E|--------------------------------0----|

LYRICS:

VERSE 1
	don't break too many hearts
	don't take too many arrows in the chest
	cry comfortably
	let us all know what you're thinking
	is there a gesture i could use
	to clearly express
	i'm at an utter loss for words
	is there a part of you that's torn
	that's larger than life
	that'll hold on for one more night

PRE CHORUS 1
	i've got a speech to make
	followed by a big parade

CHORUS
	northside, closed eyes
	all charades go on forever
	hands tied with fools pride
	in a slowly fleeing summer

VERSE 2
	just throw your hands up at the sky
	no use trying to explain this
	the clouds are mirrors, i'm disguised
	i'm not all that entertaining
	the city looks the same
	until you notice smaller changes
	it still knows us all by name
	it holds us close to its heart

PRE CHORUS 2
	all my hopes are unaligned
	this diagnosis is self-designed

CHORUS
	northside, dead eyes
	all charades go on forever.
	hands tied with past lives
	in a slowly fleeing summer.

VERSE 3
	empty rooms don't have pictures to talk to
	brickwall views demand uninspired afternoons
	the days are flooding into months
	the nights are staring into centuries

BRIDGE
	i've got some older pictures
	of people i see once every couple years
	intrigued or unamazed
	you were so much different back in those days
	and now this smile has a bitter curve

	now these eyes are unenchanted
	and all we see
	is a faded image of what we used to be.
	how can we relate

OUTRO
	when we don't know
	a thing about each other anymore
	when we don't know
	each other anymore

	is there a gesture i could use
	to clearly express
	i'm at an utter loss for words


| /  slide up
| \  slide down
| h  hammer-on
| p  pull-off
| ~  vibrato
| +  harmonic
| x  Mute note
===============================================================================
            
Submit corrections

comments powered by Disqus
↑ Back to top | Lawrence Arms Tabs for Brick Wall Views. Lyrics for acoustic guitar and electric guitar. Tablatures and chords are parodies/interpretations of the original songs. You may use it for private study, scholarship, research or language learning purposes only