» » »

Boatless Booze Cruise Bass tabs (ver.1)

Artists:  A B C D E F G H I J K L M N O P Q R S T U V W X Y Z # 

Boatless Booze Cruise Bass tabs (ver.1)

Lawrence Arms
Rating:
0/5 (0 votes)

Hard to play? Try these video lessons and learn fast.
                (Part)
BOATLESS BOOZE CRUISE PART 1 by The Lawrence Arms
:
# verse #    *=play x4   #=play x5
G--------444-22-22222--------444-22-22222----*-------------------->|
D---2222----------------2222----------------2----*--------*---*--->|
A-----------------------------------------------4----*---0---0---->|
E---------------------------------------------------0------------->|
:       
G---------#---#---#---*---*---|
D----*---2---2---2---2---2----|
A---2-------------------------|
E-----------------------------|
:
# Jacknifed... #   *=play x3-4   
G----*--*---------------------*--*-------------------------|
D---2--2---*--*--*--*--*--*--2--2---*--*-------------------|
A---------2--2--4--2--0--0---------2--2---*--*--*-----22---|
E----------------------------------------0--0--0---0-------|
:
# Lay Down... #   *=play x3-4   
G------------------------------*--*---------------------|
D-----------*--*--*--*--*--*--2--2---*--*--*--*--*--*---|
A----*--*--2--2--4--2--0--0---------2--2--0--0--0--0----|
E---0--0------------------------------------------------|
:
# Encryption Ensconces... #   *=play x3-4   
G----*-----------------*-------------------|
D---2----*---*---2----2-----2-----2----2---|
A-------2---0------0------2----00----0-----|
E------------------------------------------|
:
# I’m Too Tired #  *=play x3-4    
G------------------|----*---(x2)-----|-------(x3)-------|
D--------*--*--*---|---2---*--*--*---|--------*--*--*---|
A----*--2--4--0----|------2--4--0----|----*--2--4--0----|
E---0--------------|-----------------|---0--------------|
:
# But Don’t Forget... #   *=play x3-4   #=play x5
G-------(x2)-------|-------------------------#--#---------------|
D--------*--*--*---|--------*------*--*--*--2--2----------------|
A----*--2--0--0----|----*--4---*--0--0--2----------*--*--*--*---|
E---0--------------|---0------0-------------------0--0--0--0----|
:
# Winter Is Coming... #   *=play x3-4    
G------------------|----*--(x3)------|-------(x4)-------|
D--------*--*--*---|---2---*--*--*---|--------*--*--*---|
A----*--2--4--0----|------2--4--0----|----*--2--4--0----|
E---0--------------|-----------------|---0--------------|
:
# So Don’t Forget... #   *=play x3-4   #=play x5
G-------(x2)-------|----------------------------|
D--------*--*--*---|--------*------*--*--*--*---|
A----*--2--0--0----|----*--4---*--0--0--0--2----|
E---0--------------|---0------0-----------------|
:
# bridge #   *=play x4   
G------------------------------------------------------------->|
D-----------*--4----------*---------------*--*---------*--*--->|
A----*--*--2-------*--*--0--2020---*--*--2--2---*--*--0--0---->|
E---0--0----------0--0------------0--0---------0--0----------->|
:
G-----------(x4)------------|
D-----2-----2-----2-----2---|
A---4----22----00----00-----|
E---------------------------|
:


# Winter Has Come... #   *=play x3-4    
G-------(x2)-------|-------(x2)--------|-------(x4)------|
D--------*--*--*---|---------*--*--*---|--------*--*--*--|
A----*--2--4--0----|--------2--4--0----|----*--2--4--0---|
E---0--------------|---0---------------|---0-------------|
:
# But Don’t Forget... #   *=play x4   
G------------------------------------------------------------------>|
D----------------2----2-------------------*---222------------------>|
A---444--222--00----0-----444--222--000--0---------444--222--000--->|
E------------------------------------------------------------------>|
:
G-----------------------------------------------------------------|
D----*--*-------------*--*--*------*--*--*--*---2-------------2---|
A---0--0---000--222--4--4--4--42--0--0--2--2------4-2-0---0-2-----|
E-----------------------------------------------------------------|
:
            
Hard to play? Try these video lessons and learn fast. | Correct




comments powered by Disqus
↑ Back to top | Tablatures and chords are parodies/interpretations of the original songs. You may use it for private study, scholarship, research or language learning purposes only