» » »

Lawrence Arms, Are You There Yet Margaret Its Me God Tabs (ver.1)

Artists:  A B C D E F G H I J K L M N O P Q R S T U V W X Y Z # 

Are You There Yet Margaret Its Me God Tabs (ver.1)

Lawrence Arms Tabs
Rating:
5/5 (4 votes)
Are You There Yet Margaret Its Me God lessons Tabs too difficult? Try these video lessons and learn fast
                The Lawrence Arms - Are You There Yet Margaret It´s Me God


Well now the correct version !

3x
E|---0------0-32-|
B|-3---3--3------|
G|--2-2-2--2-2---|
D|---------------|
A|---------------|
E|---------------|

E|---------------------------777777-33333---------------------------|
B|--------------33333--------777777-33333--333333-------------------|
G|-44444--------44444--------777777-00000--444444-------------------|
D|-44444-55555--44444-55555--999999-00000--444444444444555555555555-|
A|-22222-55555--22222-55555--999999-xxxxx--222222444444555555555555-|
E|-------33333--------33333--777777-33333--------222222333333333333-|

E|-77777-33333--77777-33333--77777-33333--------------------------------------|
B|-77777-33333--77777-33333--77777-33333--333333------------------------------|
G|-77777-00000--77777-00000--77777-00000--444444------------------------------|
D|-99999-00000--99999-xxxxx--99999-xxxxx--444444444444555555555555-7----------|
A|-99999-xxxxx--99999-xxxxx--99999-xxxxx--222222444444555555555555-77~7/9-7\5-|
E|-77777-33333--77777-33333--77777-33333--------222222333333333333-5----------|

  3x
E|-------------------------|-------------------------------------|
B|-3333333-----------------|-------------------------------------|
G|-444444477777772222------|4444444777777-12121212121212121212^\-|
D|-44444447777777222255555-|4444444777777--x-x-x-x-x-x-x-x-x-x---|
A|-22222225555555000055555-|2222222555555-10101010101010101010^\-|
E|-------------------33333-|-------------------------------------|

2x
E|---0------0-32-|
B|-3---3--3------|
G|--2-2-2--2-2---|
D|---------------|
A|---------------|
E|---------------|

E|-------33333--77777-33333--77777-33333---------------------------|
B|-------33333--77777-33333--77777-33333--333333-------------------|
G|-------00000--77777-00000--77777-00000--444444-------------------|
D|-99999-00000--99999-00000--99999-00000--444444444444555555555555-|
A|-99999-xxxxx--99999-xxxxx--99999-xxxxx--222222444444555555555555-|
E|-77777-33333--77777-33333--77777-33333--------222222333333333333-|

E|---------------------------------------------------------------------------------------------0~--|
B|---------------------------------------------------------------------------------------------2~--|
G|-44444222222-------------77777999777777777-44444222222-------------7777722222222-----------7~2~4-|
D|-44444222222555555555555-xxxxxxxxxxxxxxxxx-44444222222555555555555-77777222222225555555555-7~2~5-|
A|-22222000000555555555555-55555777555555555-22222000000555555555555-55555000000005555555555-5~0~5-|
E|------------333333333333------------------------------333333333333--------------3333333333-----3-|

               3x
E|------------|-------------------------|-----------------------------------|
B|------------|-3333333-----------------|-----------------------------------|
G|------------|-444444477777772222------|4444444777777-12121212121212121212-|
D|-7----------|-44444447777777222255555-|4444444777777--x-x-x-x-x-x-x-x-x-x-|
A|-77~7/9-7\5-|-22222225555555000055555-|2222222555555-10101010101010101010-|
E|-5----------|-------------------33333-|-----------------------------------|

  3x                        2x                        3x
E|-------------------------|-------------------------|-------------------------|
B|-3333333-----------------|-------------------------|-------------------------|
G|-444444477777772222------|444444477777755555555555-|-44444222222-------------|
D|-44444447777777222255555-|444444477777755555555555-|-44444222222555555555555-|
A|-22222225555555000055555-|222222255555533333333333-|-22222000000555555555555-|
E|-------------------33333-|-------------------------|------------333333333333-|

  2x                           2x
E|----------------------------|-------------------------|
B|----------------------------|-------------------------|
G|-777777444444222222---------|-7777722222222-----------|
D|-77777744444422222255555555-|-77777222222225555555555-|
A|-55555522222200000055555555-|-55555000000005555555555-|
E|-------------------33333333-|--------------3333333333-|

2x
E|---0------0-32-|----3-|
B|-3---3--3------|-33-3-|
G|--2-2-2--2-2---|-44-0-|
D|---------------|-44-0-|
A|---------------|-22-x-|
E|---------------|----3-|
            

comments powered by Disqus
↑ Back to top | Lawrence Arms Tabs for Are You There Yet Margaret Its Me God. Lyrics for acoustic guitar and electric guitar. Tablatures and chords are parodies/interpretations of the original songs. You may use it for private study, scholarship, research or language learning purposes only