» » »

Lawrence Arms, Abracadaver Bass tabs (ver.1)

Artists:  A B C D E F G H I J K L M N O P Q R S T U V W X Y Z # 

Abracadaver Bass tabs (ver.1)

Lawrence Arms Tabs
 Rating:
4/5 (4 votes)
Abracadaver lessons Tabs too difficult? Try these video lessons and learn fast
1
                ABRACADAVER by The Lawrence Arms
:
# verse-1 #   #=play x8  *=play x16
G----------#---------------------------------------------|
D-----#---5--------------*-------5-----5-------5---5-----|
A---/3----------*---*---5---3-33---33----3-33----3---3---|
E--------------3---0-------------------------------------|
:
# chorus #   #=play x8  *=play x16
G------------------------------------------------------------------------->|
D---------*--------*--------*------------------------------#-------------->|
A----*---5----*---3----*---5-----*---3-33-/5-3----#---#---3---3333-/5-3--->|
E---3--------0--------3---------0----------------3---2-------------------->|
:
G----------------------------|
D-------------#--------------|
A----#---#---3---/5--32-32---|
E---3---2--------------------|
:
# verse-2 # x2  *=play x16
G--------------------------------------------|
D-------------*----5---5---5--------5----5---|
A----*---*---5---3-------3---3---33---33-----|
E---3---0------------------------------------|
:
Then play chorus & verse-2
:
# chorus-2 #   *=play x8  #=play x3-4
G---------------------------------------------------------->|
D---------*--------*--------*--------*--------#--------#--->|
A----*---5----*---3----*---5----*---3----#---5----#---3---->|
E---3--------0--------3--------0--------3--------0--------->|
:
G-------------------------------------------------------------->|
D---------#--------#------------#---#-------------------------->|
A----#---5----#---3----#---#---5---3----#---#---555-3--3-5-3--->|
E---3--------0--------3---0------------3---0------------------->|
:
G--------------------------------------------|
D--------------------5----------------*------|
A----*---*---*---3333----*---*---*---3---5---|
E---3---2---0-----------3---2---0------------|
:
# bridge #   *=play x8  #=play x4
G--------------*---*------------------------------------------>|
D---------*---2---2---------*--------5-----5-------5----5----->|
A----*---5-------------*---5----3-33---33----3-33----3----3--->|
E---3-----------------3--------------------------------------->|
:
G---------------------------------------------------------------|
D---------#---#---#--------#---#---#--------#---#---#---#---#---|
A----#---5---3---3----#---5---3---3----#---5---3---3---3---5----|
E---3----------------3----------------3-------------------------|
:
# outro #   *=play x8  #=play x4
G-----------------------------------------------------|
D---------#---#--------#---#--------#---#-------------|
A----*---3---5----*---3---5----*---3---5-------3------|
E---3------------3------------3-------------3-----3---|
:
            
Submit corrections

comments powered by Disqus
↑ Back to top | Lawrence Arms Bass for Abracadaver. Lyrics for acoustic guitar and electric guitar. 1 Tablatures and chords are parodies/interpretations of the original songs. You may use it for private study, scholarship, research or language learning purposes only