» » »

Lawrence Arms, 3am Qvc Shopping Hangover Bass tabs (ver.1)

Artists:  A B C D E F G H I J K L M N O P Q R S T U V W X Y Z # 

3am Qvc Shopping Hangover Bass tabs (ver.1)

Lawrence Arms Tabs
 Rating:
4/5 (4 votes)
3am Qvc Shopping Hangover lessons Tabs too difficult? Try these video lessons and learn fast
                3AM QVC SHOPPING HANGOVER by The Lawrence Arms
:
# intro #   *=play x4-6  #=play x12
G----------------------------------------------------------------->|
D----#---#---#----#---*---*---*---*--------*---*---*----6----6---->|
A---0---2---0---2---4---4---4---4----*---2---0---0-----4-4--4-4--->|
E-----------------------------------0----------------------------->|
: 
G--------------4-------------------|---------------4---|
D----6----6---2-2---4----2----2----|-------444--66-----|
A---4-4--4-4-------2-2--0-0--0-0---|---77--------------|
E----------------------------------|-------(x4)--------|
:
# Like a drunken... #   *=play x4-6  
G--------(x4)----------|--------------------------*------------------->|
D----*--------*--------|----*--------*---*---*---2----*---*---*------->|
A---4----*---2---020---|---4----*---2---2---4--------0---0---4----*--->|
E-------0--------------|-------0---------------------------------0---->|
: 
G-------------------------------------4---|--------(x4)---------|
D----6----4----2----2--------444--66------|----*--------*---*---|
A---4-4--2-2--0-0--0-0---77---------------|---4----*---2---0----|
E-----------------------------------------|-------0-------------|
:
# Some notebooks... #   *=play x4-6  
G-------------------------------|------------------------------------>|
D---222--------------22---------|----*---*---*---*---*---*---*---*--->|
A--------222--0-0-0-----22--0---|---4---2---0---0---4---2---0---0---->|
E-------------------------------|------------------------------------>|
:
G--------------------------------------------|
D----6----4----0----0----6----4----0----0----|
A---4-4--2-2--2-2--2-2--4-4--2-2--2-2--2-2---|
E--------------------------------------------|
:
# Don’t talk to me... #   *=play x4-6  #=play x16
G--------------------------*---------------------------------------------|
D----*--------*---*---*---2----*---*---*--------6----4----2----2-----#---|
A---4----*---2---2---4--------0---0---4----*---4-4--2-2--0-0--0-0---2----|
E-------0---------------------------------0------------------------------|
:
# bridge #   *=play x12  #=play x3
G--------------------|--------------(x2)----------%-------|
D----*---*---*---*---|----#---#---#-------#---#---%-------|
A---0---2---0---2----|---4---4---4---0---4---4----%---0---|
E--------------------|----------------------------%-------|
:
# Drink at the funeral... #   *=play x4  
G--------(x9)--------|-------------------------------|
D----*---*---*---*---|-------------------------------|
A---4---2---0---0----|-------44--22--00--------------|
E--------------------|---00--------------0-0-0-0-0---|
:
            
Submit corrections

comments powered by Disqus
↑ Back to top | Lawrence Arms Bass for 3am Qvc Shopping Hangover. Lyrics for acoustic guitar and electric guitar. Tablatures and chords are parodies/interpretations of the original songs. You may use it for private study, scholarship, research or language learning purposes only