» » »

Lavigne Avril, Sk8er Boi Bass tabs (ver.1)

Artists:  A B C D E F G H I J K L M N O P Q R S T U V W X Y Z # 

Sk8er Boi Bass tabs (ver.1)

Lavigne Avril Tabs
Rating:
0/5 (0 votes)
Sk8er Boi lessons Tabs too difficult? Try these video lessons and learn fast
                
Note: It was mainly the "Sorry girl..." section that was 
wrong - all the chords were right, just in the wrong 
order!!!

-=-=-=-=-=-=-=-=-=-=-=-=-=-=-=-=-=-=-=-=-=-=-=-=-=-=-=-=-

Song Order

Intro
Verse
Chorus
Chorus Outtro
Verse
Chorus
Chorus Outtro
"Solo"
"Sorry Girl..."
"He's just a..."
Ending

-=-=-=-=-=-=-=-=-=-=-=-=-=-=-=-=-=-=-=-=-=-=-=-=-=-=-=-=-

Intro: Repeat X 2

  D        A        B        Bb  A
G-------------------------------------|
D-00000000----------------------------|
A----------00000000-22222222-11110000-|
E-------------------------------------|

-=-=-=-=-=-=-=-=-=-=-=-=-=-=-=-=-=-=-=-=-=-=-=-=-=-=-=-=-

Verse 1 & 2: Repeat 2X

  D        A        B        Bb
G------------------------------------|
D-00000000---------------------------|
A----------00000000-22222222-11111111|
E------------------------------------|

  D        A        B        C
G------------------------------------|
D-00000000---------------------------|
A----------00000000-22222222-33333333|
E------------------------------------|

-=-=-=-=-=-=-=-=-=-=-=-=-=-=-=-=-=-=-=-=-=-=-=-=-=-=-=-=-

Chorus:

Repeat 2X after verse 1
Repeat 4X after verse 2

  F  d?    C        Bb       A
G------------------------------------|
D------------------------------------|
A----------33333333-11111111-00000000|
E-11111111---------------------------|

-=-=-=-=-=-=-=-=-=-=-=-=-=-=-=-=-=-=-=-=-=-=-=-=-=-=-=-=-

Chorus Outtro:

Repeat 2X after verse 2

  Bb
G----------|
D----------|
A-11111111-|
E----------|

-=-=-=-=-=-=-=-=-=-=-=-=-=-=-=-=-=-=-=-=-=-=-=-=-=-=-=-=-

"Solo":

G-------------------------------------|
D-------------------------------------|     (^ Accent)
A----------33333333-11111111--4-4-4-4-|
E-11111111----------------------------|
                              ^ ^ ^ ^
G-------------------------------------|
D-------------------------------------|
A----------33333333-11111111--4-4-0---|
E-11111111----------------------------|
                              ^ ^ ^
-=-=-=-=-=-=-=-=-=-=-=-=-=-=-=-=-=-=-=-=-=-=-=-=-=-=-=-=-

"Sorry girl...":

Repeat 2X

  D        D        F        F
G-------------------------------------|
D-00000000-00000000-------------------|
A-------------------------------------|
E-------------------11111111-11111111-|

  C        C        Bb       A
G-------------------------------------|
D-------------------------------------|
A-33333333-33333333-11111111-00000000-|
E-------------------------------------|

-=-=-=-=-=-=-=-=-=-=-=-=-=-=-=-=-=-=-=-=-=-=-=-=-=-=-=-=-

"He's just a...":

  D    A    B    Bb   D    A    B    C
G-----------------------------------------|
D-0-00----------------0-00----------------|
A------0-00-2-22-1-11------0-00-2-22-3----|
E-----------------------------------------|

-=-=-=-=-=-=-=-=-=-=-=-=-=-=-=-=-=-=-=-=-=-=-=-=-=-=-=-=-

Ending:

Repeat 4X

  F        C        Bb       A
G-------------------------------------|
D-------------------------------------|
A----------33333333-11111111-00000000-|
E-11111111----------------------------|

-=-=-=-=-=-=-=-=-=-=-=-=-=-=-=-=-=-=-=-=-=-=-=-=-=-=-=-=-

Song Order

Intro
Verse
Chorus
Chorus Outtro
Verse
Chorus
Chorus
Chorus Outtro
Solo
"Sorry Girl..."
"He's just a..."
NewChorus

-=-=-=-=-=-=-=-=-=-=-=-=-=-=-=-=-=-=-=-=-=-=-=-=-=-=-=-=-
            

comments powered by Disqus
↑ Back to top | Lavigne Avril Bass for Sk8er Boi. Lyrics for acoustic guitar and electric guitar. Tablatures and chords are parodies/interpretations of the original songs. You may use it for private study, scholarship, research or language learning purposes only