» » »

I M With You Tabs (ver.1)

Artists:  A B C D E F G H I J K L M N O P Q R S T U V W X Y Z # 

I M With You Tabs (ver.1)

Lavigne Avril
Rating:
0/5 (0 votes)

Hard to play? Try these video lessons and learn fast.
                This song is very great!!! I really love this song so I tabbed it out!!! 
                            I Love Avril Lavigne!!!
                            AVRIL LAVIGNE RULLLZ!!!


Pre - Chorus
     A5             B5                             F#5
e------------------------------------------|---------------------------------------|
B------------------------------------------|---------------------------------------|
G------------------------------------------|---------------------------------------|
D--2--2--2---2--2--2---4--4--4---4--4--4---|--7--7--7---7--7--7---7--7--7---7--7--7| 
A--0--0--0---0--0--0---2--2--2---2--2--2---|--5--5--5---5--5--5---5--5--5---5--5--5|
E------------------------------------------|---------------------------------------|

Verse (All sixth notes with every third note accented.  Repeat 4 times)
        F#5                                     D5
e-----------------------------------------|----------------------------------------|
B-----------------------------------------|----------------------------------------|
G-----------------------------------------|----------------------------------------|
D-----------------------------------------|--7--7--7---7--7--7---7--7--7---7--7--7-|
A---4--4--4---4--4--4---4--4--4---4--4--4-|--5--5--5---5--5--5---5--5--5---5--5--5-|
E---2--2--2---2--2--2---2--2--2---2--2--2 |----------------------------------------|

Pre-Chorus (Chords above are alternative if pickin is too hard for you. The last note 
is played in song  If you listen to the song you should be able to tell when to play 
the notes)
    G    Bm            E       D2
e--------------------|----------0-|
B------5--3--2-------|----------3-|
G---------------4---2|-1--------2-|
D---2----------------|----4--2--0-|
A--------------------|------------|
E--------------------|------------|

Chorus (Repeat Intro 3 times. Then Do this with down, down, up down up strokes.)
  F#5              E               D
e--2--2--2--2--2---0--0--0--0--0-|--2--2--2--2--2-|
B--2--2--2--2--2---0--0--0--0--0-|--3--3--3--3--3-|
G--2--2--2--2--2---1--1--1--1--1-|--2--2--2--2--2-|
D--4--4--4--4--4---2--2--2--2--2-|--0--0--0--0--0-|
A--4--4--4--4--4---2--2--2--2--2-|----------------|
E--2--2--2--2--2---0--0--0--0--0-|----------------|

Between Chorus and Verse (same struming as above, with the E left out.  
F#m and D go two bars each.)

Verse 2 (Repeat Verse)
Pre-Chorus (Pre-Chorus)
Chorus (Repeat Chorus)
Between Chorus and Bridge 
Bridge (all sixth notes)
     E                  Bm                   E                 Bm
e-0--0--0---0--0--0---2--2--2---2--2--2-|-0--0--0---0--0--0---2--2--2---2--2--2-|
B-0--0--0---0--0--0---3--3--3---3--3--3-|-0--0--0---0--0--0---3--3--3---3--3--3-|
G-1--1--1---1--1--1---4--4--4---4--4--4-|-1--1--1---1--1--1---4--4--4---4--4--4-|
D-2--2--2---2--2--2---4--4--4---4--4--4-|-2--2--2---2--2--2---4--4--4---4--4--4-|
A-2--2--2---2--2--2---2--2--2---2--2--2-|-2--2--2---2--2--2---2--2--2---2--2--2-|
E-0--0--0---0--0--0---0--0--0---0--0--0-|-0--0--0---0--0--0---0--0--0---0--0--0-|







Bridge (continue)
 E                      D                   C#m                  E
e-0--0--0---0--0--0---2--2--2---2--2--2-|-4--4--4---4--4--4---0--0--0---0--0--0-|
B-0--0--0---0--0--0---3--3--3---3--3--3-|-5--5--5---5--5--5---0--0--0---0--0--0-|
G-1--1--1---1--1--1---2--2--2---2--2--2-|-6--6--6---6--6--6---1--1--1---1--1--1-|
D-2--2--2---2--2--2---0--0--0---0--0--0-|-6--6--6---6--6--6---2--2--2---2--2--2-|
A-2--2--2---2--2--2---------------------|-4--4--4---4--4--4---2--2--2---2--2--2-|
E-0--0--0---0--0--0---------------------|---------------------0--0--0---0--0--0-|

Repeat Chorus
            
Hard to play? Try these video lessons and learn fast. | Correct




comments powered by Disqus
↑ Back to top | Tablatures and chords are parodies/interpretations of the original songs. You may use it for private study, scholarship, research or language learning purposes only