» » »

Lavigne Avril, Complicated Bass tabs (ver.2)

Artists:  A B C D E F G H I J K L M N O P Q R S T U V W X Y Z # 

Complicated Bass tabs (ver.2)

Lavigne Avril Tabs
 Rating:
4/5 (4 votes)
Complicated lessons Tabs too difficult? Try these video lessons and learn fast
                
~~A~~ 
G|----------------| 
D|----------------| 
A|-5-5---------3-3| 
E|-----6-6-1-1----| 
(x4) 

~~B~~ 
G|-------------------------------| 
D|-------------------------------| 
A|--------5-5-5-5---------3-3-3-3| 
E|1-1-1-1---------6-6-6-6--------| 
(x2) 

~~C~~ 
G|----------------------------| 
D|----------------------------| 
A|-------5-5hold---------3hold| 
E|6-6hold--------6-6hold------| 

~~D~~ 
G|-------------------------------| 
D|-------------------------------| 
A|5-5-5-5-----------------3-3-3-3| 
E|--------6-6-6-6-1-1-1-1--------| 
(x3) 

~~E~~ 
G|---------------------| 
D|---------------------| 
A|---------------------| 
E|3-3-3-3-3-3-3-3-6hold| 

Bx2 
C 
Dx3 
E 

~~G~~ 
G|-------------------------------- 
D|-------------------------------- 
A|----------------5-5-5-5-5-5-5-5- 
E|1-1-1-1-1-1-1-1----------------- 

~~G~~ 
G|-------------------------------| 
D|-------------------------------| 
A|----------------3-3-3-3-3-3-3-3| 
E|6-6-6-6-6-6-6-6----------------| 

~~H~~ 
G|----------------------------------------------------| 
D|----------------------------------------------------| 
A|----------------5-5-5-5-5-5-5-5----------------3hold| 
E|1-1-1-1-1-1-1-1-----------------6-6-6-6-6-6-6-6-----| 

C 
Dx3 
E 
Dx3 
E
            
Submit corrections

comments powered by Disqus
↑ Back to top | Lavigne Avril Bass for Complicated. Lyrics for acoustic guitar and electric guitar. Tablatures and chords are parodies/interpretations of the original songs. You may use it for private study, scholarship, research or language learning purposes only