» » »

Where Gravity Is Dead Tabs (ver.1)

Artists:  A B C D E F G H I J K L M N O P Q R S T U V W X Y Z # 

Where Gravity Is Dead Tabs (ver.1)

Laura Veirs
Rating:
5/5 (2 votes)

Hard to play? Try these video lessons and learn fast.
                Laura Veirs - Where Gravity Is Dead


Capo 4th Fret

Chords : Esus9 Esus9 Esus4 Em
         C7M
         G
         C7M

e--0------0------0---0---3--|
B--0------0------0---0---0--|
G--4------2------0---0---0--|
D--2------2------2---2---0--|
A--2------2------2---3---2--|
E--0------0------0-------3--|

  Esus9  Esus4  Em  C7M  G


   Em                        C
e--------------------------|-------------------------|
B--------0-------0-----0---|-------------------------|
G-----4----4---2-----0-----|-------0-----0-------0---|
D--2---2-2---2-2---2-2---2-|----2----2-----2---0-----|
A--------------------------|-3---3-3---3-3---3-3---3-|
E--------------------------|-------------------------|
   |     |     |     |       |     |     |     |

   G                         C
e--------------------------|-------------------------|
B--------------------------|-------------------------|
G--------------0-----------|-------0-----0-------0---|
D--------0-------0-----0---|----2----2-----2---2---2-|
A-----2----2---------2---2-|-3---3-3---3-3---3-3-----|
E--3---3-3---3-3---3-3-----|-------------------------|
   |     |     |     |       |     |     |     |

e--0------0------0---0---3--|
B--0------0------0---0---0--|
G--4------2------0---0---0--|
D--2------2------2---2---0--|
A--2------2------2---3---2--|
E--0------0------0-------3--|

  Esus9  Esus4  Em  C7M  G


   Em                        C
e--------------------------|-------------------------|
B--------0-------0-----0---|-------------------------|
G-----4----4---2-----0-----|-------0-----0-------0---|
D--2---2-2---2-2---2-2---2-|----2----2-----2---0-----|
A--------------------------|-3---3-3---3-3---3-3---3-|
E--------------------------|-------------------------|
   |     |     |     |       |     |     |     |

   G                         C
e--------------------------|-------------------------|
B--------------------------|-------------------------|
G--------------0-----------|-------0-----0-------0---|
D--------0-------0-----0---|----2----2-----2---2---2-|
A-----2----2---------2---2-|-3---3-3---3-3---3-3-----|
E--3---3-3---3-3---3-3-----|-------------------------|
   |     |     |     |       |     |     |     |
            
Hard to play? Try these video lessons and learn fast. | Correct




comments powered by Disqus
↑ Back to top | Tablatures and chords are parodies/interpretations of the original songs. You may use it for private study, scholarship, research or language learning purposes only