» » »

Saltbreakers Bass tabs (ver.1)

Artists:  A B C D E F G H I J K L M N O P Q R S T U V W X Y Z # 

Saltbreakers Bass tabs (ver.1)

Laura Veirs
Rating:
0/5 (0 votes)

Hard to play? Try these video lessons and learn fast.
                Artist - Laura Veirs
Song - Saltbreakers
Album - Saltbreakers
Track - 7
Bassist - Karl Blau

Basically it's the same pattern all the way, but there's lots of variations

Intro
G-------------------------------|
D-------------------------------|
A--------------3----3-6-6---8-8-|
E-6----5-3----------------------| x1

G-------------------------------|
D-------------------------------|
A--------------3----3-6-6-6-8---|
E-6-86-5-3----------------------| x1

G-------------------------------|
D-------------------------------|
A--------------3----3-6-6---8-8-|
E-6----5-3----------------------| x1

G---5-----------------------------|
D-8--8-7-5------------------------|
A--------------3----3-6--6--6--6--|
E---------------------------------| x1

Verse

G---------------------------------|
D---------------------------------|
A--------------3----3-6--6--6--6--|
E-6----5-3------------------------| x1

G---------------------------------|
D---------------------------------|
A--------------3----3-6--6--6--8--|
E-6----5-3------------------------| x1

G---------------------------------|
D---------------------------------|
A--------------3----3-6--6--6--6--|
E-6----5-3------------------------| x1

G---------------------------------|
D---------------------------------|
A--------------3----3-6--6--6--8--|
E-6----5-3------------------------| x1

Chorus
G-------------------------------|
D-------------------------------|
A--------------3----3-6-----6---|
E-6----5-3----------------------| x2

G-------------------------------|
D-------------------------------|
A--------------3----3-6-----8---|
E-6----5-3----------------------| x1

G-------------------------------|
D-------------------------------|
A--------------33-3-3-3-6---8---|
E-6----5-3----------------------| x1

Verse
G---------------------------------|
D---------------------------------|
A--------------3----3-6--6--6--6--|
E-6----5-3------------------------| x3

G---------------------------------|
D---------------------------------|
A--------------3------6--5--3-----|
E-6----5-3---------------------5--| x1

Chorus
G-------------------------------|
D-------------------------------|
A--------------3----3-6-----6---|
E-6----5-3----------------------| x1

G---------------------------------|
D---------------------------------|
A--------------3----3-6--6--6-----|
E-6----5-3---------------------5--| x1

G-------------------------------|
D-------------------------------|
A--------------3----3-6-----6---|
E-6----5-3----------------------| x1

G-------------------------------|
D-------------------------------|
A--------------33-3-3---6-6-8-8-|
E-6----5-3----------------------| x1

Solo
G---------------------------------|
D---------------------------------|
A--------------3----3-6--6--6-----|
E-6----5-3---------------------5--| x1

G-------------------------------|
D-------------------------------|
A--------------33-33-3--6-6-8-8-|
E-6----5-3----------------------| x1

G-------------------------------|
D-------------------------------|
A--------------33-3--5--6-6-6/--|
E-6----5-3----------------------| x1

G-------------------------------|
D-------------------------------|
A--------------33-3--5--6-6-6---|
E-6----5-3----------------------| x1

Verse
G-------------------------------|
D-------------------------------|
A--------------3----3-66--8-----|
E-6----533----------------------| x1

G---------------------------------|
D---------------------------------|
A--------------3----3--6--6--6----|
E-6----533---------------------5--| x1

Chorus
G---------------------------------|
D---------------------------------|
A--------------3----3-6--6--6--8--|
E-6----5-3------------------------| x1

G-------------------------------|
D-------------------------------|
A--------------3----3-6--6--68--|
E-6----5-3----------------------| x1

G-------------------------------|
D-------------------------------|
A--------------3----3-6-----6---|
E-6----5-3----------------------| x1

G-------------------------------|
D-------------------------------|
A--------------3----3-6-6-6-6-8-|
E-6----5-3----------------------| x1

Outro
G-------------------------------|
D-------------------------------|
A--------------3----3-6-6---8-8-|
E-6----5-3----------------------| x1

G---5---------------------------|
D-8--8-7-5----------------------|
A--------------33--33-3--66--8--|
E-------------------------------| x1

G-------------------------------------|
D------------------------------8~~~~~-|
A--------------3----3--6---8----------|
E-6----5-3----------------------------| x1
            
Hard to play? Try these video lessons and learn fast. | Correct




comments powered by Disqus
↑ Back to top | Tablatures and chords are parodies/interpretations of the original songs. You may use it for private study, scholarship, research or language learning purposes only