» » »

Galaxies Bass tabs (ver.1)

Artists:  A B C D E F G H I J K L M N O P Q R S T U V W X Y Z # 

Galaxies Bass tabs (ver.1)

Laura Veirs
Rating:
0/5 (0 votes)

Hard to play? Try these video lessons and learn fast.
                Artist - Laura Veirs
Song - Galaxies
Album - Year of Meteors
Track - 2
Bassist - Karl Blau

Intro/First Verse
No bass until this just before the Chorus
G-------------|
D-7p5---------|
A---------5-7-|
E-------8-----|

Chorus
G------------------------------|
D-------------5--------3-3-3-5-|
A------------------------------|
E-5---5-8----------------------|

G------------------------------|
D-7---7-------5h7p5------------|
A---------------------8-8-8-10-|
E-------8---8-------8----------|

G-------5----------------------|
D-7---7-------5--------3-3-3-5-|
A------------------------------|
E------------------------------|

G----------------------------------------|
D-7---7-------5h7p5----------------------|
A---------------------8-8-8-10-12~~~~~~--|
E-------8---8-------8--------------------|

Second Verse, again this is just before the chorus
G---------|
D-3-3-3---|
A---------|
E-------3-|

Chorus
G------------------------------|
D-------------5--------3-3-3-5-|
A------------------------------|
E-5---5-8----------------------|

G------------------------------|
D-7---7-------5h7p5------------|
A---------------------8~~~~~~~-|
E-------8-----------8----------|

G------------------------------|
D-------------5--------3h5p3-5-|
A------------------------------|
E-5---5-8----------------------|

G------------------------------|
D-7---7-------5h7p5------------|
A---------------------8-8-8-10-|
E-------8---8-------8----------|

Solo
G------------------------------|
D-------------5--------3-3-3-5-|
A------------------------------|
E-5---5-8----------------------|

G------------------------------|
D-------------5h7p5------------|
A---------------------8~~~~~~~-|
E-5---5-8-----------8----------|

G------------------------------|
D-------------5--------3-3-3-5-|
A------------------------------|
E-5---5-8----------------------|

G----------------------------------------|
D-7---7-------5h7p5----------------------|
A---------------------8-8-8-10-12~~~~~~--|
E-------8---8-------8--------------------|

Third Verse
No bass at all this time

Chorus
G------------------------------|
D-------------5--------3-3-3-5-|
A------------------------------|
E-5---5-8----------------------|

G------------------------------|
D-------------5h7p5------------|
A---------------------8-8-8-10-|
E-5---5-8----------------------|


G------------------------------|
D-------------5--------3-3-3-5-|
A------------------------------|
E-5---5-8----------------------|

G------------------------------|
D-------------5h7p5------------|
A---------------------8~~~~~~~-|
E-5---5-8-----------8----------|

Outro
G------------------------------|
D-7---7---------5--------------|
A-------5h7p5-7-------8-8-8-10-|
E------------------------------| x4

G------------------------------|
D-7---7------------------------|
A-------5h7p5-7-10~~~~~--------|
E------------------------------|
            
Hard to play? Try these video lessons and learn fast. | Correct




comments powered by Disqus
↑ Back to top | Tablatures and chords are parodies/interpretations of the original songs. You may use it for private study, scholarship, research or language learning purposes only