» » »

Laura Veirs, Ether Sings Bass tabs (ver.1)

Artists:  A B C D E F G H I J K L M N O P Q R S T U V W X Y Z # 

Ether Sings Bass tabs (ver.1)

Laura Veirs Tabs
Rating:
0/5 (0 votes)
Ether Sings lessons Tabs too difficult? Try these video lessons and learn fast
                -------------------------------------------------------------------------------
-------------------------------------------------------------------------------


Tuning: standard

Bass doesn't come in until 0:55

the basic riffs are
G|-------------------|
D|-------------------|
A|-------3~----------|
E|--3-3--------------|

and

G|-------------------|
D|--5----------------|
A|-------3~----------|
E|----3--------------|

| /  slide up
| \  slide down
| h  hammer-on
| p  pull-off
| ~  vibrato
| +  harmonic
| x  Mute note
===============================================================================
            
Submit corrections

comments powered by Disqus
↑ Back to top | Laura Veirs Bass for Ether Sings. Lyrics for acoustic guitar and electric guitar. Tablatures and chords are parodies/interpretations of the original songs. You may use it for private study, scholarship, research or language learning purposes only