» » »

En Cambio No Tabs (ver.1)

Artists:  A B C D E F G H I J K L M N O P Q R S T U V W X Y Z # 

En Cambio No Tabs (ver.1)

Laura Pausini
Rating:
0/5 (0 votes)

Hard to play? Try these video lessons and learn fast.
                INTRO:

      C
  E|--0-----------3------|--0-----------3-----|
  B|------1---3----------|------1---3---------|
  G|----0---0---0---0----|----0---0---0---0---|
  D|---------------------|--------------------|
  A|--3------------------|--3-----------------|
  E|---------------------|--------------------|
        F
  E|--0-----------3------|--0-----------3-----|
  B|------1---3----------|------1---3---------|
  G|----2---2---2---2----|----2---2---2---2---|
  D|---------------------|--------------------|
  A|---------------------|--------------------|
  E|--1------------------|--1-----------------|

INICIO:

      C
  |--0-----------3------|--0-----------3-----|
  |------1---3----------|------1---3---------|
  |----0---0---0---0----|----0---0---0---0---|
  |---------------------|--------------------|
  |--3------------------|--3-----------------|
  |---------------------|--------------------|
Quizás bastaba respirar,    sólo respirar

        F
  |--0-----------3----|--0-----------3----|
  |------1---3--------|------1---3--------|
  |----2---2---2---2--|----2---2---2---2--|
  |-------------------|-------------------|
  |-------------------|-------------------|
  |--1----------------|--1----------------|
muy lento...

         C
  |----0-----------3------|----0-----------3--------|
  |--------1---3----------|--------1---3------------|
  |------0---0---0---0----|------0---0---0---0------|
  |-----------------------|-------------------------|
  |----3------------------|----3--------------------|
  |-----------------------|-------------------------|
Recuperar cada latido en mí y no tiene sentido ahora que no

        F
  |--0-----------3----|--0-----------3----|
  |------1---3--------|------1---3--------|
  |----2---2---2---2--|----2---2---2---2--|
  |-------------------|-------------------|
  |-------------------|-------------------|
  |--1----------------|--1----------------|
estás,   ahora dónde estás

        Dm                  F
  |-----1---0----------|------1---0-----|
  |-------------1------|-3------------1-|
  |-------2---2--------|--------2---2---|
  |-----0--------------|----------------|
  |--------------------|------3---------|
  |--------------------|----------------|
porque yo no    puedo acostumbrarme aún

        C
  |--0-----------3------|--0-----------3-------|
  |------1---3----------|------1---3-----------|
  |----0---0---0---0----|----0---0---0---0-----|
  |---------------------|----------------------|
  |--3------------------|--3-------------------|
  |---------------------|----------------------|
diciembre ya llegó,

      Dm                    F
  |---1---0----------|------1---0---1-0--------|
  |-----------1------|--------------1-1--------|
  |-----2---2--------|--------2---2------------|
  |---0--------------|-------------------------|
  |------------------|------3------------------|
  |------------------|-------------------------|
no estas aquí yo te esperare hasta el fin...



           C
En cambio no, hoy no hay tiempo de explicarte
         Am
y preguntar si te amé lo suficiente
           F                      C      G
yo estoy aquí y quiero hablarte ahora, ahora.

          C
Porque se rompen en mis dientes, las cosas importantes,
          F
esas palabras que nunca escucharás
          C
y las sumerjo en un lamento haciéndolas salir
              F
son todas para ti, una por una aquí.
           Dm                  F            C
Las sientes ya besan y se posarán entre nosotros dos,
            Dm                 F                            C
si me faltas tú, no las puedo repetir, no las puedo pronunciar



           C
En cambio no me llueven los recuerdos
             Am
de aquellos días que corríamos al viento
          F                      C       G
quiero soñar que puedo hablarte ahora, ahora



          C
En cambio no, hoy no, hay tiempo de explicarte
          Am
También tenía ya mil cosas que contarte
           F                                      C
y frente a mi, mil cosas que me arrastran junto a ti.


         C
  |--0-----------3------|--0-----------3-----|
  |------1---3----------|------1---3---------|
  |----0---0---0---0----|----0---0---0---0---|
  |---------------------|--------------------|
  |--3------------------|--3-----------------|
  |---------------------|--------------------|
Quizás bastaba respirar,    sólo respirar

        F
  |--0-----------3----|--0-----------3----|
  |------1---3--------|------1---3--------|
  |----2---2---2---2--|----2---2---2---2--|
  |-------------------|-------------------|
  |-------------------|-------------------|
  |--1----------------|--1----------------|
 muy lento...

         C
  |--0-----------3------|--0-----------3------------|
  |------1---3----------|------1---3--------------1-|
  |----0---0---0---0----|----0---0---0---0--------0-|
  |---------------------|-------------------------2-|
  |--3------------------|--3----------------------3-|
  |---------------------|---------------------------|
Hoy.....es.....tarde,.....hoy...en...cambio,......no.
            
Hard to play? Try these video lessons and learn fast. | Correct




comments powered by Disqus
↑ Back to top | Tablatures and chords are parodies/interpretations of the original songs. You may use it for private study, scholarship, research or language learning purposes only