» » »

Laura Marling, Typical Tabs (ver.1)

Artists:  A B C D E F G H I J K L M N O P Q R S T U V W X Y Z # 

Typical Tabs (ver.1)

Laura Marling Tabs
Rating:
0/5 (0 votes)
Typical lessons Tabs too difficult? Try these video lessons and learn fast
                Hey I have simplified this for people like me who work best with the simplest! =] 
I hope you enjoy this as much As I do!
The whole song follows the same patterns for plucking.. I would just say listen to 
the recording for timing... as in some places the notes are longer.

Tuning:Standard.
Capo: 3 

Intro:

C              G              Em             D
--------------|--------------|--------------|--------------|
-----1-------1|-----0-------0|-----0-------0|-----3-------3|
---0------0---|---0------0---|---0------0---|---2------2---|
--------------|--------------|--------------|-0-----0------|
-3-----3------|--------------|-2-----2------|--------------|
--------------|-3-----3------|--------------|--------------|




C              G              Em             D
--------------|--------------|--------------|--------------|
-----1-------1|-----0-------0|-----0-------0|-----3-------3|
---0------0---|---0------0---|---0------0---|---2------2---|
--------------|--------------|--------------|-0-----0------|
-3-----3------|--------------|-2-----2------|--------------|
--------------|-3-----3------|--------------|--------------|
Again I let     jealousy         blind me       today. 

C              G              Em             D
--------------|--------------|--------------|--------------|
-----1-------1|-----0-------0|-----0-------0|-----3-------3|
---0------0---|---0------0---|---0------0---|---2------2---|
--------------|--------------|--------------|-0-----0------|
-3-----3------|--------------|-2-----2------|--------------|
--------------|-3-----3------|--------------|--------------|
My oldest      friend and     I blew her     away.

C              G              Em             D
--------------|--------------|--------------|--------------|
-----1-------1|-----0-------0|-----0-------0|-----3-------3|
---0------0---|---0------0---|---0------0---|---2------2---|
--------------|--------------|--------------|-0-----0------|
-3-----3------|--------------|-2-----2------|--------------|
--------------|-3-----3------|--------------|--------------|   
Just a few kind  words and    all I could       say 

Am                            D            
--------------|--------------|--------------|--------------|
-----1-------1|-----1-------1|-----3-------3|-----3-------3|
---2------2---|---2------2---|---2------2---|---2------2---|
-2-----2------|-2-----2------|-0-----0------|-0-----0------|
--------------|--------------|--------------|--------------|
--------------|--------------|--------------|--------------|                           
was I've known you of ten years it feels like a day. 


Am                            D               
--------------|--------------|--------------|--------------|
-----1-------1|-----1-------1|-----3-------3|-----3-------3|
---2------2---|---2------2---|---2------2---|---2------2---|
-2-----2------|-2-----2------|-0-----0------|-0-----0------|
--------------|--------------|--------------|--------------|
--------------|--------------|--------------|--------------|
And oh          I watched         her Cry,

Am                            D               
--------------|--------------|--------------|--------------|
-----1-------1|-----1-------1|-----3-------3|-----3-------3|
---2------2---|---2------2---|---2------2---|---2------2---|
-2-----2------|-2-----2------|-0-----0------|-0-----0------|
--------------|--------------|--------------|--------------|
--------------|--------------|--------------|--------------|

  torn apart     at the            hands of a child. 


(Follows same pattern)
 C                G            Em          D
And again I used arrogance as something to depend
   C               G           Em      D 
and condemned all religion to pitiless end. 
      C             G         Em            D
And a politician's resonance rang through my mind. 
Am                          D
Patriotic in one sense the other just blind.
Am           D     Am               D 
Oh so many died, torn apart at the hands of a child 

(Listen for timing here)
C                D              Em         G
And I'll keep on going I've got nothing to lose. 
C          D          Em        G
I gave up morals when I took up you
C                  D        Em           G 
and it's boring to hear of another young truth 
        C          D           Em
and what typically sh*t thing to do. 


I was so shallow to the one man'd stuck around 
sunk so low that I nearly drowned 
and I screamed of his heart when he wasn't around 
Consoled him recklessly, I knew you were down. 
Oh I watched him cry, a broken heart at the hands of a child. 

And I'll keep on going I've got nothing to lose 
I gave up morals when I took up you 
and its boring to hear, of another young truth 
and what a typically sh*t thing to do. 

(Listen for timing here as well)
Am                      D                      G
I have felt heartbreak too and I know what it feels like. 
Am                      D                    G
I have felt heartbreak now you can leave me alone right. 
Am                  D                       G
I have felt loneliness and I know what it feels like. 

(Usual Pattern)
But kept on going I had nothing to lose, 
and I gave up morals when I took up booze. 
And it's boring to hear of another young truth 
and what a typically sh*t thing to do. 
            

comments powered by Disqus
↑ Back to top | Laura Marling Tabs for Typical. Lyrics for acoustic guitar and electric guitar. Tablatures and chords are parodies/interpretations of the original songs. You may use it for private study, scholarship, research or language learning purposes only