» » »

Laura Marling, Sophia Tabs (ver.3)

Artists:  A B C D E F G H I J K L M N O P Q R S T U V W X Y Z # 

Sophia Tabs (ver.3)

Laura Marling Tabs
 Rating:
4/5 (4 votes)
Sophia lessons Tabs too difficult? Try these video lessons and learn fast
                (Intro)
there is any problems :)

tuning
DGDGBD - capo 2nd fret
all chords and strummed once then the d string is picked open ( try not to strum the low 
D and G strings when strumming.)

D|------2---------|
B|------1---------|
G|----------------|
D|------0---------|
G|----------------|
D|----------------|

D|------5---------|
B|------5---------|
G|----------------|
D|------0---------|
G|----------------|
D|----------------|

D|------4---------|
B|------3---------|
G|----------------|
D|------0---------|
G|----------------|
D|----------------|

D|------2-------0-0h2----|
B|------1-------0-0h1----|
G|--------------0--------|
D|------0----------------|
G|-----------------------|
D|-----------------------|

open strum 2 DDUU ( originally she picks the strings but its hard to see)

in the intro she only plays the chord once then open. (only down strums)
D|----------------|
B|--------1-------|
G|----------------|
D|--------2-------|
G|----------------|
D|----------------|
X2 then open

'were i've been lately..'
D|------5---------|
B|------5---------|
G|----------------|
D|------0---------|
G|----------------|
D|----------------|

D|------7---------|
B|------7---------|
G|----------------|
D|------0---------|
G|----------------|
D|----------------|

D|------9---------|
B|------9---------|
G|----------------|
D|------0---------|
G|----------------|
D|----------------|

D|------7---------|
B|------7---------|
G|----------------|
D|------0---------|
G|----------------|
D|----------------|

D|------5---------|
B|------5---------|
G|----------------|
D|------0---------|
G|----------------|
D|----------------|

D|------4---------|
B|------3---------|
G|----------------|
D|------0---------|
G|----------------|
D|----------------|

only picks these parts, but have no idea what strings
D|------2--------|
B|------1--------|
G|---------------|
D|------0--------|
G|---------------|
D|---------------|

D|----------------|
B|--------1-------|
G|----------------|
D|--------2-------|
G|----------------|
D|----------------|

repeat - X?

the rest of the song I'm not to sure about..the best way to figure out the rhythm is to 
listen to the original song and play along till your confident. :) enjoy and good luck
            
Submit corrections

comments powered by Disqus
↑ Back to top | Laura Marling Tabs for Sophia. Lyrics for acoustic guitar and electric guitar. Tablatures and chords are parodies/interpretations of the original songs. You may use it for private study, scholarship, research or language learning purposes only