» » »

Rebecca Tabs (ver.1)

Artists:  A B C D E F G H I J K L M N O P Q R S T U V W X Y Z # 

Rebecca Tabs (ver.1)

Laura Marling
Rating:
0/5 (0 votes)

Tabs too difficult? Try these video lessons and learn fast.
                ---------------------------------------------------------------------------
                             Rebecca – Laura Marling
---------------------------------------------------------------------------

Tuning: Standard


e|---------0---------0--------0-------0---------0--------0--------0------0-|
B|---------1---------1--------0-------0---------1--------1--------0------0-|
G|---------0---------0--------0-------0---------2--------2--------0------0-|
D|--------------2------------------------------------2---------------------|
A|---3---------------------------2---------0--------------------------2----|
E|------------------------3------------------------------------3-----------|

Re...be         cca     rebe     cca

e|---------0---------0--------0-------0---------0--------0--------0------0--|
B|---------1---------1--------0-------0---------1--------1--------1------1--|
G|---------0---------0--------0-------0---------0--------0--------0------0--|
D|--------------2------------------------------------2-----------------2----|
A|---3---------------------------2---------3------------------3-------------|
E|------------------------3-------------------------------------------------|

X2


e|------0------0--------0---------0---------1---------1-------0------------|
B|------1------1--------0---------0---------1---------1-------1------------|
G|------0------0--------1---------1---------2---------2-------0------------|
D|----------2--------------------------------------------------------------|
A|--3-----------------------2---------------------3--------3---------------|
E|------------------3-------------------1----------------------------------|

X2

The rest follows an almost identical pattern, very easy.
            
Tabs too difficult? Try these video lessons and learn fast.


comments powered by Disqus
↑ Back to top | Tablatures and chords are parodies/interpretations of the original songs. You may use it for private study, scholarship, research or language learning purposes only