>
 >
My Manic And I 1

My Manic And I 1 Guitar Tabs

Laura Marling - My Manic And I 1 chords, tabs, tablatures, lyrics

Guitar lessons | Add/correct | Request | Top 50 tabs Artists:  A B C D E F G H I J K L M N O P Q R S T U V W X Y Z 0-9

My Manic And I 1 Guitar Tabs – Laura Marling

CD, Sheet music, Poster

Do you like My Manic And I 1? Share with your friends now
ChordsChords v2Chords v3TabsTabs v2Ukulele
Laura Marling - My Manic and I


Standard tuning - capo on 1st


intro
|--------------------------------------------------|
|---5-5---5-0---0-0---0-0---5-5---5-0-0------------|
|---5-5---5-0---7-7---7-0---5-5---5-0-7------------|
|---7-7---7-0---6-6---6-0---7-7---7-0-6------------|
|--------------------------------------------------|
|-5-----5-----7-----7-----5-----5-----7------------|


He wants to die in a lake in Geneva, the mountains can cover the shape of his nose.
|--------------------------------------------------|
|---5-5---5-5---5-5---5-5---5-5---5-5---0-0---0-0--|
|---5-5---5-5---5-5---5-5---5-5---5-5---7-7---7-7--|
|---7-7---7-7---7-7---7-7---7-7---7-7---6-6---6-6--|
|--------------------------------------------------|
|-5-----5-----5-----5-----5-----5-----7-----7------|

He wants to die where nobody can see him but the beauty of his death will carry on so
|--------------------------------------------------|
|---5-5---5-5---5-5---5-5---5-5---5-5---0-0---0-0--|
|---5-5---5-5---5-5---5-5---5-5---5-5---7-7---7-7--|
|---7-7---7-7---7-7---7-7---7-7---7-7---6-6---6-6--|
|--------------------------------------------------|
|-5-----5-----5-----5-----5-----5-----7-----7------|


I dont believe him.
|--------------------------------------------------|
|---5-5---5-5---5-5---5-5---0-0---0-0---0-0---0-0--|
|---5-5---5-5---5-5---5-5---7-7---7-7---7-7---7-7--|
|---7-7---7-7---7-7---7-7---6-6---6-6---6-6---6-6--|
|--------------------------------------------------|
|-5-----5-----5-----5-----7-----7-----7-----7------|


He greets me with kisses when good days deceive him and sometimes with scorn and 
I believe him.
|--------------------------------------------------|
|---5-5---5-5---5-5---5-5---5-5---5-5---0-0---0-0--|
|---5-5---5-5---5-5---5-5---5-5---5-5---7-7---7-7--|
|---7-7---7-7---7-7---7-7---7-7---7-7---6-6---6-6--|
|--------------------------------------------------|
|-5-----5-----5-----5-----5-----5-----7-----7------|

And sometimes I'm convinced my friends think I am crazy, get scared and call him but 
usually hazy.
|--------------------------------------------------|
|---5-5---5-5---5-5---5-5---5-5---5-5---0-0---0-0--|
|---5-5---5-5---5-5---5-5---5-5---5-5---7-7---7-7--|
|---7-7---7-7---7-7---7-7---7-7---7-7---6-6---6-6--|
|--------------------------------------------------|
|-5-----5-----5-----5-----5-----5-----7-----7------|


By one in the morning day is not ended, by two he is scared and sleep is no friend, and
|--------------------------------------------------|
|--------------------------------------------------|
|-------5-----------5-----------7-----------7------|
|-----7---7-------7---7-------6---6-------6---6----|
|---7-------7---7-------7---8-------8---8-------8--|
|-5-----------5-----------7-----------7------------|

it
|--------------------------------------------------|
|--------------------------------------------------|
|-------5-----------5-----------7-----------7------|
|-----7---7-------7---7-------6---6-------6--------|
|---7-------7---7-------7---8-------8---8----------|
|-5-----------5-----------7-----------7------------|


and I dont believe him.
|--------------------------------------------------|
|---5-5---5-5---5-5---5-5---0-0---0-0---0-0---0-0--|
|---5-5---5-5---5-5---5-5---7-7---7-7---7-7---7-7--|
|---7-7---7-7---7-7---7-7---6-6---6-6---6-6---6-6--|
|--------------------------------------------------|
|-5-----5-----5-----5-----7-----7-----7-----7------|

Morning is mocking me.
|--------------------------------------------------|
|---5-5---5-5---5-5---5-5---0-0---0-0---0-0---0-0--|
|---5-5---5-5---5-5---5-5---7-7---7-7---7-7---7-7--|
|---7-7---7-7---7-7---7-7---6-6---6-6---6-6---6-6--|
|--------------------------------------------------|
|-5-----5-----5-----5-----7-----7-----7-----7------|

I'll wander the streets avoiding them eats until the ring on my finger slips to the ground.
|--------------------------------------------------|
|-------------------------------------0------------|
|-------5-----------5-----------5-----7------------|
|-----7---7-------7---7-------7---7---6------------|
|---7-------7---7-------7---7-------7--------------|
|-5-----------5-----------5-----------7------------|

A gift to the gutter, a gift to the city the veins of which have broken me down.
|--------------------------------------------------|
|---5-5---5-5---5-5---5-5---5-5---5-5---0-0---0-0--|
|---5-5---5-5---5-5---5-5---5-5---5-5---7-7---7-7--|
|---7-7---7-7---7-7---7-7---7-7---7-7---6-6---6-6--|
|--------------------------------------------------|
|-5-----5-----5-----5-----5-----5-----7-----7------|


And I dont believe him,
|--------------------------------------------------|
|---5-5---5-5---5-5---5-5---0-0---0-0---0-0---0-0--|
|---5-5---5-5---5-5---5-5---7-7---7-7---7-7---7-7--|
|---7-7---7-7---7-7---7-7---6-6---6-6---6-6---6-6--|
|--------------------------------------------------|
|-5-----5-----5-----5-----7-----7-----7-----7------|

Morning is mocking me.
|--------------------------------------------------|
|---5-5---5-5---5-5---5-5---0-0---0-0---0-0---0-0--|
|---5-5---5-5---5-5---5-5---7-7---7-7---7-7---7-7--|
|---7-7---7-7---7-7---7-7---6-6---6-6---6-6---6-6--|
|--------------------------------------------------|
|-5-----5-----5-----5-----7-----7-----7-----7------|


Oh the gods that he believes
|--------------------------------------------------|
|---1-1---1-1---0-0---0-0---1-1---1-1---0-0---0-0--|
|---2-2---2-2---0-0---0-0---2-2---2-2---0-0---0-0--|
|---2-2---2-2---2-2---2-2---2-2---2-2---2-2---2-2--|
|-0-----0-----------------0-----0------------------|
|-------------0-----0-----------------0-----0------|
  Am          Em          Am          Em

never fail to amaze me.
|--------------------------------------------------|
|---1-1---1-1---0-0---0-0---1-1---1-1---0-0---0-0--|
|---2-2---2-2---0-0---0-0---2-2---2-2---0-0---0-0--|
|---2-2---2-2---2-2---2-2---2-2---2-2---2-2---2-2--|
|-0-----0-----------------0-----0------------------|
|-------------0-----0-----------------0-----0------|
  Am          Em          Am          Em


He believes in the love of his god of all things, but I find him wrapped up in all 
of sins.
|--------------------------------------------------|
|-------1-----------0-----------1-----------0------|
|-----2---2-------0---0-------2---2-------0---0----|
|---2-------2---2-------2---2-------2---2-------2--|
|-0-----------------------0------------------------|
|-------------0-----------------------0------------|
  Am          Em          Am          Em

The drugs that deceive him and the girls that believe him.
|--------------------------|
|---1-1---1-1---0-0---0-0--|
|---2-2---2-2---0-0---0-0--|
|---2-2---2-2---2-2---2-2--|
|-0-----0------------------|
|-------------0-----0------|
  Am          Em


I can't control you I dont know you well, these are the reasons I think that you're ill.
|--------------------------------------------------|
|-------1-----------1-----------1------------------|
|-----2---2-------2---2-------2---2-----2-2---1-1--|
|---0-------0---0-------0---0-------0---0-0---0-0--|
|--------------------------------------------------|
|-3-----------2-----------1-----------0-----0------|

I can't control you I dont know you well, these are the reasons I think that you're ill.
|--------------------------------------------------------------|
|-------1-----------1-----------1------------------------------|
|-----2---2-------2---2-------2---2-----2-2---1-1---2-2---1-1--|
|---0-------0---0-------0---0-------0---0-0---0-0---0-0---0-0--|
|--------------------------------------------------------------|
|-3-----------2-----------1-----------0-----0-----0-----0------|


And since *last that I saw him last that we parted* down by a river silent and hardened,
|--------------------------------------------------|
|---1-1---1-1---0-0---0-0---1-1---1-1---0-0---0-0--|
|---2-2---2-2---0-0---0-0---2-2---2-2---0-0---0-0--|
|---2-2---2-2---2-2---2-2---2-2---2-2---2-2---2-2--|
|-0-----0-----------------0-----0------------------|
|-------------0-----0-----------------0-----0------|
  Am          Em          Am          Em

morning was mocking us. Blood hit the sky.I was just happy, my manic and I.
|--------------------------------------------------|
|---1-1---1-1---0-0---0-0---1-1---1-1---0-0---0-0--|
|---2-2---2-2---0-0---0-0---2-2---2-2---0-0---0-0--|
|---2-2---2-2---2-2---2-2---2-2---2-2---2-2---2-2--|
|-0-----0-----------------0-----0------------------|
|-------------0-----0-----------------0-----0------|
  Am          Em          Am          Em

He couldn't see me the sun was in his eyes
|--------------------------|
|---1-1---1-1---0-0---0-0--|
|---2-2---2-2---0-0---0-0--|
|---2-2---2-2---2-2---2-2--|
|-0-----0------------------|
|-------------0-----0------|
  Am          Em


and birds were singing to calm us down.
|--------------------------------------------------------------|
|-------1-----------1-----------1------------------------------|
|-----2---2-------2---2-------2---2-----2-2---1-1---1-1---1-1--|
|---0-------0---0-------0---0-------0---0-0---0-0---0-0---0-0--|
|--------------------------------------------------------------|
|-3-----------2-----------1-----------0-----0-----0-----0------|

And birds were singing to calm us down.
|--------------------------------------------------------------|
|-------1-----------1-----------1------------------------------|
|-----2---2-------2---2-------2---2-----2-2---1-1---1-1---1-1--|
|---0-------0---0-------0---0-------0---0-0---0-0---0-0---0-0--|
|--------------------------------------------------------------|
|-3-----------2-----------1-----------0-----0-----0-----0------|


And I'm sorry young man, I cannot be your friend. I don't believe in a fairytale end.
|--------------------------------------------------|
|---1-1---1-1---0-0---0-0---1-1---1-1---0-0---0-0--|
|---2-2---2-2---0-0---0-0---2-2---2-2---0-0---0-0--|
|---2-2---2-2---2-2---2-2---2-2---2-2---2-2---2-2--|
|-0-----0-----------------0-----0------------------|
|-------------0-----0-----------------0-----0------|
  Am          Em          Am          Em

I dont keep my head up all of the time. I find it dull when my heart meets my mind
|--------------------------------------------------|
|---1-1---1-1---0-0---0-0---1-1---1-1---0-0---0-0--|
|---2-2---2-2---0-0---0-0---2-2---2-2---0-0---0-0--|
|---2-2---2-2---2-2---2-2---2-2---2-2---2-2---2-2--|
|-0-----0-----------------0-----0------------------|
|-------------0-----0-----------------0-----0------|
  Am          Em          Am          Em


and I hardly know you I think I can tell, these are the reasons I think that we're ill.
|--------------------------------------------------|
|-------1-----------1-----------1------------------|
|-----2---2-------2---2-------2---2-----2-2---1-1--|
|---0-------0---0-------0---0-------0---0-0---0-0--|
|--------------------------------------------------|
|-3-----------2-----------1-----------0-----0------|

I hardly know you I think I can tell, these are the reasons I think that I'm ill.
|--------------------------------------------------------------|
|-------1-----------1-----------1------------------------------|
|-----2---2-------2---2-------2---2-----2-2---1-1---2-2---1-1--|
|---0-------0---0-------0---0-------0---0-0---0-0---0-0---0-0--|
|--------------------------------------------------------------|
|-3-----------2-----------1-----------0-----0-----0-----0------|


And the gods that he believes
|--------------------------------------------------|
|---1-1---1-1---0-0---0-0---1-1---1-1---0-0---0-0--|
|---2-2---2-2---0-0---0-0---2-2---2-2---0-0---0-0--|
|---2-2---2-2---2-2---2-2---2-2---2-2---2-2---2-2--|
|-0-----0-----------------0-----0------------------|
|-------------0-----0-----------------0-----0------|
  Am          Em          Am          Em

never fail to disappoint me.
|--------------------------------------------------|
|---1-1---1-1---0-0---0-0---1-1---1-1---0-0---0-0--|
|---2-2---2-2---0-0---0-0---2-2---2-2---0-0---0-0--|
|---2-2---2-2---2-2---2-2---2-2---2-2---2-2---2-2--|
|-0-----0-----------------0-----0------------------|
|-------------0-----0-----------------0-----0------|
  Am          Em          Am          Em

And the gods that he believes
|--------------------------------------------------|
|---1-1---1-1---0-0---0-0---1-1---1-1---0-0---0-0--|
|---2-2---2-2---0-0---0-0---2-2---2-2---0-0---0-0--|
|---2-2---2-2---2-2---2-2---2-2---2-2---2-2---2-2--|
|-0-----0-----------------0-----0------------------|
|-------------0-----0-----------------0-----0------|
  Am          Em          Am          Em

never fail to disappoint me.
|--------------------------------------------------|
|---1-1---1-1---0-0---0-0---1-1---1-1---0-0---0-0--|
|---2-2---2-2---0-0---0-0---2-2---2-2---0-0---0-0--|
|---2-2---2-2---2-2---2-2---2-2---2-2---2-2---2-2--|
|-0-----0-----------------0-----0------------------|
|-------------0-----0-----------------0-----0------|
  Am          Em          Am          Em

My last, my happy man, my manic and I
|--------------------------------------------------|
|---1-1---1-1---0-0---0-0---1-1---1-1---0-0---0-0--|
|---2-2---2-2---0-0---0-0---2-2---2-2---0-0---0-0--|
|---2-2---2-2---2-2---2-2---2-2---2-2---2-2---2-2--|
|-0-----0-----------------0-----0------------------|
|-------------0-----0-----------------0-----0------|
  Am          Em          Am          Em

have no plans to move on.
|--------------------------------------------------|
|-------1-----------1-----------1------------------|
|-----2---2-------2---2-------2---2-----2-2---1-1--|
|---0-------0---0-------0---0-------0---0-0---0-0--|
|--------------------------------------------------|
|-3-----------2-----------1-----------0-----0------|

But birds are singing to calm us down
|--------------------------------------------------------------|
|-------1-----------1-----------1------------------------------|
|-----2---2-------2---2-------2---2-----2-2---2-2---1-1---1-1--|
|---0-------0---0-------0---0-------0---0-0---0-0---0-0---0-0--|
|--------------------------------------------------------------|
|-3-----------2-----------1-----------0-----0-----0-----0------|

And birds are singing to calm us down.
|--------------------------------------------------------------|
|-------1-----------1-----------1------------------------------|
|-----2---2-------2---2-------2---2-----2-2---2-2---1-1---1-1--|
|---0-------0---0-------0---0-------0---0-0---0-0---0-0---0-0--|
|--------------------------------------------------------------|
|-3-----------2-----------1-----------0-----0-----0-----0------|


|---------0---0------------|
|-------1-----1------------|
|-----2-----2-2------------|
|---2---------2------------|
|-0-----------0------------|
|--------------------------|
  Am

end.





Comments


Popular Laura Marling tabs & chords
Alas I Cannot Swim Chords
Cross Your Fingers Chords
London Town Chords
New Romantic 4 Chords
Mama How Far Ive Come Tabs
Sophia 1 Tabs
Take The Night Off Tabs
Rebecca Ukulele
Your Only Doll Dora Ukulele
Youre No God Ukulele


Song lyrics



↑ Back to top | Tablatures and chords are parodies/interpretations of the original songs. You may use it for private study, scholarship, research or language learning purposes only
© 2014 AZChords.com Contact us | Privacy policy | DMCA | Add/correct tabs | Request tabs | Top 50 tabs