» » »

Laura Marling, My Manic And I Tabs (ver.1)

Artists:  A B C D E F G H I J K L M N O P Q R S T U V W X Y Z # 

My Manic And I Tabs (ver.1)

Laura Marling Tabs
 Rating:
4.7/5 (13 votes)
My Manic And I lessons Tabs too difficult? Try these video lessons and learn fast
                 This is the first song I've tabbed, it's such a good tune I had to give it a
 go. Have mostly watched her play live and just listened to the song to
 create this so I doubt it's perfect but I think most of it's correct. The
 lyrics I've included are more like markers, they don't perfectly
 coincide with the tab.
 
 Capo on 1st

intro
|-----------------------------------|
|--5-5--5-5--0-0--0-0--5-5--5-5--0--|
|--5-5--5-5--7-7--7-7--5-5--5-5--7--|
|--7-7--7-7--6-6--6-6--7-7--7-7--6--|  x 1
|-----------------------------------|
|-5----5----7----7----5----5-----7--|


  He wants...                 ...shape of his nose
|------------------------------------------|
|--5-5--5-5--5-5--5-5--5-5--5-5--0-0--0-0--|
|--5-5--5-5--5-5--5-5--5-5--5-5--7-7--7-7--|
|--7-7--7-7--7-7--7-7--7-7--7-7--6-6--6-6--|  x 2
|------------------------------------------|
|-5----5----5----5----5----5----7----7-----|


  I don't believe...him
|------------------------------------------|
|--5-5--5-5--5-5--5-5--0-0--0-0--0-0--0-0--|
|--5-5--5-5--5-5--5-5--7-7--7-7--7-7--7-7--|
|--7-7--7-7--7-7--7-7--6-6--6-6--6-6--6-6--|  x 1
|------------------------------------------|
|-5----5----5----5----7----7----7----7-----|

  
  He greets...               ...sometimes I believe him
|------------------------------------------|
|--5-5--5-5--5-5--5-5--5-5--5-5--0-0--0-0--|
|--5-5--5-5--5-5--5-5--5-5--5-5--7-7--7-7--|
|--7-7--7-7--7-7--7-7--7-7--7-7--6-6--6-6--|  x 2
|------------------------------------------|
|-5----5----5----5----5----5----7----7-----|


  At one in...             ...by two he is   
|-----------------------------------------------------|
|-----------------------------------------------------|
|-------5-----------5--------------7-----------7------|
|-----7---7-------7---7----------6---6-------6---6----| x 1
|---7-------7---7-------7------8-------8---8-------8--|
|-5-----------5--------------7-----------7------------|


  by four he...             ...sleep will not
|-------------------------------------------------|
|-------------------------------------------------|
|-------5-----------5--------------7-----------7--|
|-----7---7-------7---7----------6---6-------6----| x 1
|---7-------7---7-------7------8-------8---8------|
|-5-----------5--------------7-----------7--------|


  I don't believe...him
|------------------------------------------|
|--5-5--5-5--5-5--5-5--0-0--0-0--0-0--0-0--|
|--5-5--5-5--5-5--5-5--7-7--7-7--7-7--7-7--|
|--7-7--7-7--7-7--7-7--6-6--6-6--6-6--6-6--|  x 2
|------------------------------------------|
|-5----5----5----5----7----7----7----7-----|

  
  I'll wander...                       ...slips to the ground
|--------------------------------------------|
|-----------------------------------------0--|
|--------5------------5-----------5-------7--|
|------7---7--------7---7-------7---7-----6--|  x 1
|----7-------7----7-------7---7-------7------|
|--5------------5-----------5-------------7--|


  A gift...                    ...broken me down
|------------------------------------------|
|--5-5--5-5--5-5--5-5--5-5--5-5--0-0--0-0--|
|--5-5--5-5--5-5--5-5--5-5--5-5--7-7--7-7--|
|--7-7--7-7--7-7--7-7--7-7--7-7--6-6--6-6--|  x 1
|------------------------------------------|
|-5----5----5----5----5----5----7----7-----|


  And I don't believe
|------------------------------------------|
|--5-5--5-5--5-5--5-5--0-0--0-0--0-0--0-0--|
|--5-5--5-5--5-5--5-5--7-7--7-7--7-7--7-7--|
|--7-7--7-7--7-7--7-7--6-6--6-6--6-6--6-6--|  x 2
|------------------------------------------|
|-5----5----5----5----7----7----7----7-----|


  Oh the God's...
|------------------|
|---1---1---0---0--|
|---2---2---0---0--|
|---2---2---2---2--|  x 4
|-0---0------------|
|---------0---0----|
  Am      Em


  He believes...
|---------------------------|
|-------1------------0------|
|-----2---2--------0---0----|
|---2-------2----2-------2--|  x 2
|-0-------------------------|
|--------------0------------|
  Am           Em


  The drugs...
|------------------|
|---1---1---0---0--|
|---2---2---0---0--|
|---2---2---2---2--|  x 1
|-0---0------------|
|---------0---0----|
  Am      Em


  I can't control you...            ...think that you're ill
|--------------------------------------------------|
|-------1-----------1-----------1------------------|
|-----2---2-------2---2-------2---2------2-2--1-1--|
|---0-------0---0-------0---0-------0----0-0--0-0--|  x 1
|--------------------------------------------------|
|-3-----------2-----------1------------0-----0-----|
              ^           ^
      (i just use my thumb for these)   
  
  
  I can't control you...             ...think that you're ill
|--------------------------------------------------------------|
|-------1-----------1-----------1------------------------------|
|-----2---2-------2---2-------2---2------2-2--1-1---2-2---1-1--|
|---0-------0---0-------0---0-------0----0-0--0-0---0-0---0-0--|  x 1
|--------------------------------------------------------------|
|-3-----------2-----------1------------0-----0----0-----0------|


  And since last...
|------------------|
|---1---1---0---0--|
|---2---2---0---0--|
|---2---2---2---2--|  x 5
|-0---0------------|
|---------0---0----|
  Am      Em


  And birds were singing...
|--------------------------------------------------------------|
|-------1-----------1-----------1------------------------------|
|-----2---2-------2---2-------2---2------2-2--1-1---1-1---1-1--|
|---0-------0---0-------0---0-------0----0-0--0-0---0-0---0-0--|  x 2
|--------------------------------------------------------------|
|-3-----------2-----------1------------0-----0----0-----0------|


  And I'm sorry...
|------------------|
|---1---1---0---0--|
|---2---2---0---0--|
|---2---2---2---2--|  x 4
|-0---0------------|
|---------0---0----|
  Am      Em


  I hardly know you...               ... think that we're ill
|--------------------------------------------------|
|-------1-----------1-----------1------------------|
|-----2---2-------2---2-------2---2------2-2--1-1--|
|---0-------0---0-------0---0-------0----0-0--0-0--|  x 1
|--------------------------------------------------|
|-3-----------2-----------1------------0-----0-----|


  I hardly know you...                ...think that I'm ill
|--------------------------------------------------------------|
|-------1-----------1-----------1------------------------------|
|-----2---2-------2---2-------2---2------2-2--1-1---2-2---1-1--|
|---0-------0---0-------0---0-------0----0-0--0-0---0-0---0-0--|  x 1
|--------------------------------------------------------------|
|-3-----------2-----------1------------0-----0----0-----0------|


  And the God's...
|------------------|
|---1---1---0---0--|
|---2---2---0---0--|
|---2---2---2---2--|  x 10  (the last two repetitions more softly)
|-0---0------------|
|---------0---0----|
  Am      Em


  Have no plans...
|--------------------------------------------------|
|-------1-----------1-----------1------------------|
|-----2---2-------2---2-------2---2------2-2--1-1--|
|---0-------0---0-------0---0-------0----0-0--0-0--|  x 1
|--------------------------------------------------|
|-3-----------2-----------1------------0-----0-----|


  But birds are singing...
|--------------------------------------------------------------|
|-------1-----------1-----------1------------------------------|
|-----2---2-------2---2-------2---2------2-2--2-2---1-1---1-1--|
|---0-------0---0-------0---0-------0----0-0--0-0---0-0---0-0--|  x 2
|--------------------------------------------------------------|
|-3-----------2-----------1------------0-----0----0-----0------|


|---------0---0--|
|-------1-----1--|
|-----2-----2-2--|
|---2---------2--|
|-0-----------0--|
|----------------|
  Am
            
Submit corrections

comments powered by Disqus
↑ Back to top | Laura Marling Tabs for My Manic And I. Lyrics for acoustic guitar and electric guitar. Tablatures and chords are parodies/interpretations of the original songs. You may use it for private study, scholarship, research or language learning purposes only