» » »

Laura Marling, Made By Maid Tabs (ver.1)

Artists:  A B C D E F G H I J K L M N O P Q R S T U V W X Y Z # 

Made By Maid Tabs (ver.1)

Laura Marling Tabs
 Rating:
4/5 (4 votes)
Made By Maid lessons Tabs too difficult? Try these video lessons and learn fast
1
                laura marling - made by maid
capo 3rd fret tuning- EBEC#BE

the parts are going to be called letters to make it easier to play along..
(picked)

intro ---- (A)
E|------------------------------------------------------------------------------|
B|------------0---------------------0-----------------0---------------------0---|
E|----5/7-------7---------7/5--------5------5/4------4----------4/2-------2-----|
C|----5/7----------7------7/5-----------5---5/3---------3-------3/1----------1--|
A|------------------------------------------------------------------------------|
E|----0--------------------0-------------------0--------------------0-----------|

E|----------------------------------------------|
B|----------------------------------------------|
E|------------0-----------------------0---------|
C|----0h1------1---0-------0h1-------1--0-------|
A|----------------------------------------------|
E|----0---------------0-------0--------------0--|

(B)
E|--------------------------------------------0---|
B|------------0---------------0---------0---0-----|
E|-----5/7-----7---------5--------4--------0------|
C|-----5/7-------7-------5--------3--------0------|
A|---------------------------------------------0--|
E|-----0--------------------------------------0---|

(C) x 2
E|---------------------------------------|
B|---------------------------------------|
E|------------0------0-----4------4------|
C|--------5-----5--------------3------3--|
A|--------------------------0------------|
E|--------5------------------------------|
(D)
E|---------------------------------------------------------------|
B|---------------------------------------------------------------|
E|---------0----0---------0----0-------------0-------------------|
C|----7------7--------5----5-----------0--------0-----1-----0----|
A|---------------------------------------------------------------|
E|----7----------------5----------------0---------------0-----0--|

(D2) x 3
E|--------------------------------|
B|--------------------------------|
E|---------0----0---------0----0--|
C|----7------7--------5----5------|
A|--------------------------------|
E|----7----------------5----------|

(E)
E|--------------------------------------------------------------|
B|--------------------------------------------------------------|
E|--------------------------------------------------------------|
C|---------1-------1------1------1---------0----0----0---0---0--|
A|--------------------------------------------------------------|
E|------0-------0-------0------0--------0-----0---0----0----0---|


( A)
They dance like sirens, hoping the sun would come out again
( B)
And I was born in the fog of that day

( C)
Can they hear a babe over all the faith,

(D)
Or have they forgot what it was that they made

(A)
Crawled out of the fog, found a river, Found a log and floated away

(B)
Didnt think Id be coming back this way

(A)
But my feet are resolute; Found their root and brought me back to its place

(A)
And on the hill where I was born, There is no rose but just a thorn;

(C)
They cut it off each year and give it away

(D2)
But can they hear a babe after all these days,

(C) (only once)  (D)
Or have they forgot what it was that they made

(A)
So left to wander blind, I find myself in cautious times,

(A)
And they say, Loves labor is never lost; labor on to this very day.

(A)
So I walk into the fog, found a babe atop a log and all alone

(A)
Took him under, took him on,

Taught him everything about the world Id come to know

(E)
And he blames me for every wrong ever he made
(E)
I am blamed for every wrong ever he made
(E)
Forgive me I am only a maid
(E)
Forgive me I am only a maid
(D2)
But I can see a babe under all that blame
(A)
And I am forgot from the day I am laid
            
Submit corrections

comments powered by Disqus
↑ Back to top | Laura Marling Tabs for Made By Maid. Lyrics for acoustic guitar and electric guitar. 1 Tablatures and chords are parodies/interpretations of the original songs. You may use it for private study, scholarship, research or language learning purposes only