>
 >
I Was Just A Card 1

I Was Just A Card 1 Guitar Tabs

Laura Marling - I Was Just A Card 1 chords, tabs, tablatures, lyrics

Guitar lessons | Add/correct | Request | Top 50 tabs Artists:  A B C D E F G H I J K L M N O P Q R S T U V W X Y Z 0-9

I Was Just A Card 1 Guitar Tabs – Laura Marling

CD, Sheet music, Poster

Do you like I Was Just A Card 1? Share with your friends now
TabsTabs v2
I Was Just A Card
Laura Marling

DADFAD
Capo 3 [album]

Order
Intro
Verse (1)
Fill
Verse (2)
Fill
Intro
Verse (3)
Fill
Verse (4)
Fill

Intro
D ------------------------|
A ------------7--9--------|
F -9--8--6------------9---|
D ------------------7---7-|
A ------------------------|
D ------------------------|
I was just a card
Caught up in the stars
Looking down to Mars

D -11-9--11-9-|-11-9--11-9-|
A -9-----9----|-8-----8----|
F -9-----9----|-9-----9----|
D ------------|------------|
A ------------|------------|
D ------------|------------|
1. You know, you know; I know, I know
2. You know, you know; he knows, he knows

D -9/7---7--7/5--5--5-5--5-|-3-0-3-0-3-0-|-3-0-3-0-3-0-|
A -0/0---0--0/0--0--0-0--0-|-0-0-0-0-0-0-|-0-0-0-0-0-0-|
F -9/7---7--7/6--6--6/5--5-|-4-4-4-4-4-4-|-4-4-4-4-4-4-|
D -------------------------|-------------|-------------|
A -------------------------|-------------|-------------|
D -------------------------|-------------|-------------|
1. Something about you that you dont want me to know
2. Something about me that I dont want him to know

Verse
D ------|------|
A ----7-|----7-|
F -9--7-|-9--7-|
D -9--7-|-9--7-|
A -9----|-9----|
D ------|------|
1. Never found a solid hand till I found that man, till I found that man of mine
2. Never knew the sky was white till I took that flight, till I took that flight to him
3. Couldve sworn I had that man when he took my hand, when he took my hand down near you
4. Didnt even see the night till I said goodbye, till I said goodbye to him

Verse
D -x-
A -8--
F -0--
D -7--
A -x--
D -8--
1. You were looking at me thinking, Who am I?
2. Tonight
3. You were looking at me thinking, Who is she?
4. Tonight

Fill
D ------------|
A ------------|
F -4--2--4--2-|
D -0--0--0--0-|
A -x--x--x--x-|
D -5--3--5--3-|





Comments


Popular Laura Marling tabs & chords
My Manic And I 2 Chords
Typical Chords
What He Wrote Chords
Goodbye England Tabs
Made By Maid Tabs
My Manic And I 1 Tabs
Nature Of Dust Tabs
Shine Tabs
What He Wrote Tabs
Alas I Cannot Swim Ukulele


Song lyrics



↑ Back to top | Tablatures and chords are parodies/interpretations of the original songs. You may use it for private study, scholarship, research or language learning purposes only
© 2014 AZChords.com Contact us | Privacy policy | DMCA | Add/correct tabs | Request tabs | Top 50 tabs